Jireh Lim - Buko Text Guitar Tab

Learn song with the online tabulature player
Tabbed by: Yen D.
please rate =D

e|-12~-----------------------12------------------------|
B|-12~--15-14----------12-12-----15-14-----------------|
G|------------14-16--------------------14-16-18-16-14--|
D|-----------------------------------------------------|
A|-----------------------------------------------------|
E|-----------------------------------------------------|


e|-------12------------------------12---------------------------|
B|-12-12------15-14----------12-12-----15-14--------------------|
G|------------------14-16--------------------14-16-16/18-16-14--|
D|--------------------------------------------------------------|
A|--------------------------------------------------------------|
E|--------------------------------------------------------------|

or

e|-7~-12--10-9----------7-7--12--10-9-----------------|
B|--------------10-12------------------10-12-14-12-10-|
G|----------------------------------------------------|
D|----------------------------------------------------|
A|----------------------------------------------------|
E|----------------------------------------------------|

e|-7-7--12--10-9----------7-7--12--10-9--------------------|
B|----------------10-12------------------10-12-12/14-12-10-|
G|---------------------------------------------------------|
D|---------------------------------------------------------|
A|---------------------------------------------------------|
E|---------------------------------------------------------|

enjoy =)