Jo Dee Messina - Bring On The Rain Text Guitar Tab

Learn song with the online tabulature player
This is correct, try it out yourself.
This is my first tab.

I'm going to start out when she starts singing.

If you want the whole song e-mail me at maggiemayr@yahoo.com

e-----------------------------------------0-----------|
B---------0---3---3-----0---3-----0---3-------0-------|
G----0------------------------------------------------|
D-----------------------------------------------------|
A-----------------------------------------------------|
E-----------------------------------------------------|


e----------------------------------3------------------|
B---0---3---3---------3---0---3----------0------------|
G---------------2P0-----------------------------------|
D-----------------------------------------------------|
A-----------------------------------------------------|
E-----------------------------------------------------|

e-------------------------------------------------------|
B---3---3---1---1---0---0----------0---1---0---0------0-|
G--------------------------2---2------------------2-----|
D-------------------------------------------------------|
A-------------------------------------------------------|
E-------------------------------------------------------|

e----------0---0---2---2----3---3---0---0-------------|
B---0---0---------------------------------------------|
G-----------------------------------------------------|
D-----------------------------------------------------|
A-----------------------------------------------------|
E-----------------------------------------------------|

Chorus:

e-----------------------------------------------------------|
B-----------0---------------------------0---0---0---0-------|
G---0---0-------2---0---2---0---0---0------------------2--2-|
D-----------------------------------------------------------|
A-----------------------------------------------------------|
E-----------------------------------------------------------|

e-----------------------------------------------------|
B-------0---0-----------------------------------------|
G---------------0---0---------------------------------|
D---0-------------------------------------------------|
A-----------------------------------------------------|
E-----------------------------------------------------|