Jo Dee Messina - Bye Bye Text Guitar Tab

Learn song with the online tabulature player
-------------------------------------------------------------------------------
                             Bye, Bye - Jo Dee Messina
-------------------------------------------------------------------------------

Tuning: Standard

Main Riff:

e|-----------------------------------------------------------------------------|
B|--11--10---------------------------------------------------------------------|
G|--10--10--12-12--------------------------------------------------------------|
D|----------13-13--12b13r12-10--8--10--12--------------------------------------|
A|-----------------------------------------8--10--12---------------------------|
E|-----------------------------------------------------11--11---10b11r10--8--6-|

e|------------------------|
B|------------------------|
G|---8~--8~----8~---------|
D|---8~--8~----8~---------|
A|---6~--6~----6~---------|
E|------------------------|