Joan Jett - Little Liar Text Guitar Tab

Learn song with the online tabulature player
This is the way Joan plays it.

Tuning: e B G D A E


Intro:

e|-----------------------------------------------------|
B|-----------------------------------------------------|
G|---7--5--3--5----7--5--3--5----7--5--3--5----7--5--3-|
D|---7--5--3--5----7--5--3--5----7--5--3--5----7--5--3-|
A|---5--3--1--3----5--3--1--3----5--3--1--3----5--3--1-|
E|-----------------------------------------------------|

Verse 1:

e|-----------------------------------------------------|
B|-----------------------------------------------------|
G|---7--3--5---7--3--5----10--6--8---10--6-------------|
D|---7--3--5---7--3--5----10--6--8---10--6-------------|
A|---5--1--3---5--1--3-----8--4--6----8--4-------------|
E|-----------------------------------------------------|

e|-----------------------------------------------------|
B|-----------------------------------------------------|
G|---7--3--5---7--3--5----10--6--8----6--8-------------|
D|---7--3--5---7--3--5----10--6--8----6--8-------------|
A|---5--1--3---5--1--3-----8--4--6----4--6-------------|
E|-----------------------------------------------------|


Chorus:

e|-----------------------------------------------------|
B|-----------------------------------------------------|
G|--10--6--8----10--6--8----10--6--8----10-------------|
D|--10--6--8----10--6--8----10--6--8----10-------------|
A|---8--4--6-----8--4--6-----8--4--6-----8-------------|
E|-----------------------------------------------------|

Verse 2:

e|-----------------------------------------------------|
B|-----------------------------------------------------|
G|---7--3--5---7--3--5----10--6--8----6--8-------------|
D|---7--3--5---7--3--5----10--6--8----6--8-------------|
A|---5--1--3---5--1--3-----8--4--6----4--6-------------|
E|-----------------------------------------------------|

Chorus:

e|-----------------------------------------------------|
B|-----------------------------------------------------|
G|--10--6--8----10--6--8----10--6--8-----6----8--------|
D|--10--6--8----10--6--8----10--6--8-----6----8--------|
A|---8--4--6-----8--4--6-----8--4--6-----4----6--------|
E|-----------------------------------------------------|

Solo:

e|-----------------------------------------------------|
B|------1----------1----------1----------1-------------|
G|---5--2--3----5--2--3----5--2--3----5--2--3----------|
D|---6--3--4----6--3--4----6--3--4----6--3--4----------|
A|---6--3--4----6--3--4----6--3--4----6--3--4----------|
E|---4-----2----4-----2----4-----2----4-----2----------|

Verse 3:

e|-----------------------------------------------------|
B|-----------------------------------------------------|
G|---7--3--5---7--3--5----10--6--8----6--8-------------|
D|---7--3--5---7--3--5----10--6--8----6--8-------------|
A|---5--1--3---5--1--3-----8--4--6----4--6-------------|
E|-----------------------------------------------------|

Last Chorus/Outro:

e|-----------------------------------------------------|
B|------1----------1----------1----------1-------------|
G|---5--2--3----5--2--3----5--2--3----5--2--3----------|
D|---6--3--4----6--3--4----6--3--4----6--3--4----------|
A|---6--3--4----6--3--4----6--3--4----6--3--4----------|
E|---4-----2----4-----2----4-----2----4-----2----------|