Joe Anderson - Hey Jude Text Guitar Tab

Learn the song with the online tablature player
This song is from the beatle's movie across the universe.
It's not the good way to play it but it's alright to play it while the song is playing

enjoy it!

e|---------------------------------------------------------------------------|
B|-----------------------------4--4-3------------------------6-4-3-4---------|
G|--3----------3-5--------------------3-5-3--------3-5-5--5---------5-3------|
D|-----5-----5-----3----3-5-6---------------6-5------------------------------|
A|---------------------------------------------------------------------------|
E|---------------------------------------------------------------------------|X2

e|---------------------------------------------------------------------------|
B|---------------------------------------------------------------------------|
G|--------5-3---3------------------------------------------------------------|
D|----3-5---------6-5--------------------------------------------------------|
A|--6------------------5-6---------------------------------------------------|
E|---------------------------------------------------------------------------|

e|---------------------------------------------------------------------------|
B|-----4--------------4----4-----4-------------------------------------------|
G|---3----6-5-3-3--5----5----------5-3---3--5-3------------------------------|
D|---------------6-----------6---------6--------6-5--------------------------| X2
A|--------------------------------------------------6------------------------|
E|---------------------------------------------------------------------------|

e|---------------------------------------------------------------------------|
B|-------------3-4-6-6-------------------------------------------------------|
G|----3-5-6-6----------------------------------------------------------------|
D|---------------------------------------------------------------------------|
A|--6------------------------------------------------------------------------|
E|---------------------------------------------------------------------------|

e|---------------------------------------------------------------------------|
B|------------------------------4--4-3-----------------------6-4-3-4---------|
G|--3----------3-5--------------------3-5-3--------3-5-5--5---------5-3------|
D|-----5-----5-----3----3-5-6---------------6-5------------------------------|
A|---------------------------------------------------------------------------|
E|---------------------------------------------------------------------------|x2

e|---------------------------------------------------------------------------|
B|---------------------------------------------------------------------------|
G|--------5-3---3------------------------------------------------------------|
D|----3-5---------6-5--------------------------------------------------------|
A|--6------------------5-6---------------------------------------------------|
E|---------------------------------------------------------------------------|