Joe Purdy - This Morning Blue Text Guitar Tab

Learn song with the online tabulature player
From the Stomping Grounds album. I've tabbed as much as I can get out of it, but its 
to hear the picking as the song goes on.

Chords used:


C - X32010
G - 320010
F - X33210
Am - X02210

Intro and verse: The chords are C and G

e|--3---3------3---3-------------3-------3---3----------------------|
B|--------1----------1------1h3----3-----------3--------------------|
G|----0-----0-----0-----0------------0-----0-----0------------------|
D|------------------------------------------------------------------|
A|------------------------------------------------------------------|
E|------------------------------------------------------------------|

C               G                          C    G
Woke up next to you, this morning blue

C              G           C        G
Your eyes the open, so slow

e|------------------------3-----3-3-----|
B|------1-----1-1h3--1------1-------1---|
G|----2-----0-----------------2-------2-|Then the picking used in the verse
D|--3-----2-----------------------------|
A|-------------------0------------------|
E|--------------------------------------|

       F         Am       G       Am        C     G
To the things they did not want to see

       F         Am       G       Am        C     G
And lord I'm praying that it wasn't me

Pattern and chords used the same throughtout. Comments/corrections welcome.