Joe Satriani - Bamboo Text Guitar Tab

Learn song with the online tabulature player
Bamboo by Joe Satriani
                      (Intro)

This song uses standard tuning.

In this song Joe Satriani uses two hand tapping, if you're not sure how to do this
check it out on youtube.


E-----------17p0---------17p0--19p0-----|                 Let the A string
B-----------------17p10-----------------|                 ring and only do
G------------17p9---------17p9--19p9----|   x4            the finger tapping
D------------------17p7-----------------|                 part 4 times.
A---0-----------------------------------|
E---------------------------------------|


E-----------12p0--------12p0--14p0------|                 Do the same as
B-----------------12p5------------------|                 before with the
G------------12p4--------12p4--14p4-----|   x4            open E string.
D------------------12p2-----------------|
A---------------------------------------|
E---0-----------------------------------|


E-----------17p0---------17p0--19p0-----|
B-----------------17p10-----------------|
G------------17p9---------17p9--19p9----|   x4
D------------------17p7-----------------|
A---0-----------------------------------|
E---------------------------------------|


E-----------12p0--------12p0--14p0------|               Do the same as before
B-----------------12p7------------------|               with the 3rd fret of
G------------12p5-------12p5--14p5------|   x4          the A string.
D------------------12p5-----------------|
A---3-----------------------------------|
E---------------------------------------|


E-----------17p0---------17p0--19p0-----|
B-----------------17p10-----------------|
G------------17p9---------17p9--19p9----|   x4
D------------------17p7-----------------|
A---0-----------------------------------|
E---------------------------------------|


E-----------12p0--------12p0--14p0------|
B-----------------12p5------------------|
G------------12p4--------12p4--14p4-----|   x4
D------------------12p2-----------------|
A---------------------------------------|
E---0-----------------------------------|

           This is an awesome song, enjoy playing!!