Johann Sebastian Bach - Minuette Text Guitar Tab

Learn the song with the online tablature player
E|---------------------------------|---0-----------0---1---2---3-----------||
B|-3-----------0---1---3-----------|-------1---3---------------------------||
G|-----0---2---------------0---0---|-------------------------------0---0---||
D|---------------------------------|---------------------------------------||
A|---------------------------------|---------------------------------------||
E|---------------------------------|---------------------------------------||
                                           __________________________________
                                          | 1.
E|----------------------------------------|--------------------------------||
B|-1---3---1---0-------0---1---0----------|-------------0-------0----------||
G|-----------------2---------------2---0--|-----0---2-------0-------2-----:||
D|----------------------------------------|-4------------------------------||
A|----------------------------------------|--------------------------------||
E|----------------------------------------|--------------------------------||
   ________________________________________
  | 2.
E||--------------------------------------||
B||-----0--------------------------------||
G||-2-------2---0-------0----------------||
D||-----------------4--------------------||
A||--------------------------------------||
E||--------------------------------------||