John Barry - 007 Text Guitar Tab

Learn song with the online tabulature player
-----------------------------------------------------------------------------
                             007 - John Barry
-----------------------------------------------------------------------------

Tuning: EADGBe

This is the secondary theme in the early James Bond films, not the James Bond theme 
you're thinking of, but the other action theme.

Also note that Barry obviously arranged these for an orchestra, and so notes can be 
moved around to different octaves to mimick different instruments. I've used a fair amount 
of octave chords here to create more depth, but it can't equal a horn or string section.

Timpani Rhythm:

e|------------------|
B|------------------|
G|------------------|
D|------------------|
A|--7--7--7-7--9----|
E|---------------7--|

Discordant Rhythm:

e|--------------------7\2--|
B|-------------------------|
G|-------------------------|
D|--8-8--8-8--8--8-8-------|
A|-------------------------|
E|--6-6--6-6--6--6-6-------|

Monotone rhythm (played behind main melody):

e|---------------------------|
B|---------------------------|
G|---------------------------|
D|--9-9--9-9--9--9-9---9--9--|
A|---------------------------|
E|--7-7--7-7--7--7-7---7--7--|

Main melody:

e|-----------------0-|--0------------------|--0-2---4---4-5---7--|
B|-------------2-0---|----4-0-2---2-0------|------0---------7----|
G|-------------------|------------------1--|---------------------|
D|----2-----2--------|----------------2----|---------------------|
A|--2-----2----------|---------------------|---------------------|
E|-------------------|---------------------|---------------------|

Altered melody (for bridge):

e|--------------|
B|--------------|
G|--------4-3~--|
D|----2---------|
A|--2-----------|
E|--------------|

Occasional fill:

e|-------------|
B|-------------|
G|--3h4p3~--4--|
D|-------------|
A|-------------|
E|-------------|


| /  slide up
| \  slide down
| h  hammer-on
| p  pull-off
| ~  vibrato
| +  harmonic
| x  Mute note

For more tabs from secret agent films and TV:
http://www.mister8.com