John Butler Trio - Sista Chords

Main Riff
Main Riff
 
No chord
    
Standard guitar tuning:
E
A
D
G
B
E
No capo

Verse chords

e----------------------------------|
C----------------------------------|
G----------------------------------|
C-2-2-2--\5-5-5-5--0-0-0--\7-7-7-7-|
G-2-2-2--\5-5-5-5--0-0-0--\7-7-7-7-|
C-2-2-2--\5-5-5-5--0-0-0--\7-7-7-7-|
Harmonics over the top: e-7*--5*|
C-7*--5*|
G-7*--5*|
C-------|
G-------|
C-------|

Chorus chords

e-----------------------------------|
C-----------------------------------|
G-----------------------------------|
C-9-9-9-9--5-5-5-5--7-7-7-7-7-7-7-7-|
G-9-9-9-9--5-5-5-5--7-7-7-7-7-7-7-7-|
C-9-9-9-9--5-5-5-5--7-7-7-7-7-7-7-7-|

All Content on this page is the property of the copyright owner of the original composition.