John Cougar Mellencamp - Hurts So Good Text Guitar Tab

Learn song with the online tabulature player
Intro1                     Intro 2
     5              12 sec {----------5----------}  
|-|------|---------------||---------|-------------|
|4|--~~--|------%--------||*--------|------------*|
|4|------|--/--/--/------||*0-0-0-0-|-0-0-0------*|
|-|------|---------0-2-4-||---------|-------0-2-4-|
     R      R  R  R  + 4 +   1 2 3 4   1 2 3 + 4 +
 
[Vocals start]
 
Verse
 
|---------|---------|---------|---------|
|---------|---------|---------|-0-0-0-0-|   X2
|-0-0-0-0-|---------|---------|---------|
|---------|-0-0-0-0-|-2-2-2-2-|---------|
  1 2 3 4   1 2 3 4   1 2 3 4   1 2 3 4
 
Verse2
(With a girl Like you....)
 
|---------|---------|---------|---------|---------|---------|---------|---------|
|---------|---------|---------|---------|---------|-0-0-0-0-|---------|---------|
|-0-0-0-0-|-7-/-/-/-|-0-0-0-0-|---------|---------|---------|---------|---------|
|---------|---------|---------|-0-0-0-0-|-2-2-2-2-|---------|-0-0-0-0-|-0-0-0-0-|
1 2 3 4   1 2 3 4   1 2 3 4   1 2 3 4   1 2 3 4   1 2 3 4   1 2 3 4   1 2 3 4 
 
Chorus
 
|---------|---------|---------|---------|----------|---------|---------|
|---------|---------|---------|---------|-0--------|-0-0-0-0-|---------|
|-0-0-0-0-|---------|-0-0-0-0-|---------|----------|---------|---------|
|---------|-0-0-0-0-|---------|-0-0-0-0-|-----2----|---------|-0-0-0-0-|          
1 2 3 4   1 2 3 4   1 2 3 4   1 2 + 3 4  1 2 3 4   1 2 3 4 	  1 2 3 4
 
Repeat Intro2
 
Repeat Verse
 
Repeat Verse2
 
Pre-Bridge
 
|---------|---------|
|---------|---------|
|---------|---------|
|-0-0-0-0-|-0-0-0-0-|
 
Bridge
 
|---------|---------|---------|---------|---------|---------|---------|---------|
|-0-0-0-0-|---------|-0-0-0-0-|---------|-0-0-0-0-|-0-0-0-0-|---------|---------|
|---------|-0-0-0-0-|---------|-----0-0-|---------|---------|---------|---------|
|---------|---------|---------|-2-2-----|---------|---------|-0-0-0-0-|-0-0-0-0-|
  1 2 3 4   1 2 3 4   1 2 3 4   1 2 3 4   1 2 3 4   1 2 3 4   1 2 3 4   1 2 3 4 
 
Intro2 to fade