John Cougar Mellencamp - Wild Nights Text Guitar Tab

Learn song with the online tabulature player
I saw what this site had as the bass tab and I felt so embarrassed for bass players 
b/c it was such a bad tab. I reported it hoping it would get taken off. Anyways here's the 
tab.

John Cougar MellenCamp
Wild Nights
Standard


Notes on the Song:
Palm Mute The Intro and Verse and Solo
Slap and Pop whenever to get whatever feel  you want for the song
I couldn't remeber what the sign for harmonics was so i put a star(*) above the harmoic part.
These |« do not indicate different bars they are just sperators.
The 12's and 11's are 12's and 11's not 1's and 2's. Of course any idiot could figure 
out if they tried playing it both ways

Intro X1
G]--------|-------|-------|-------|
D]-5------|-5-----|-5-----|-5-----|
A]--7-5-5-|--7-5-5|--7-5-5|--7-5-5|
E]0----7--|0----5-|3----7-|3----7-|

Verse X3              (*)                     (*)
G]-------|-------|----12-----------------|----12-----------------|
D]-5-----|-5-----|------11h12p11h12p11h12|------11h12p11h12p11h12|
A]--7-5-5|--7-5-5|-----------------------|-----------------------|
E]0----7-|0----7-|1/12-------------------|1/12-------------------|

PreChours X1
G]-------------------------|
D]-------------------------|
A]7~-5~-3h5-5-5-5-5-5-5-5-5|
E]-------------------------|

Chorus X2
G]--------|-------|-------|---------------|
D]--------|-------|-------|---------------|
A]7~-5-3~-|7~-5-3~|7~-5-3~|5-5-5-5-5-5-5-5|
E]--------|-------|-------|---------------|

Verse Part 3x
PreChorus X1
Chorus X2

Solo - Repeat this over and over...or take the scenic route as I do and make this a 
to do a little soloing and show off a tad bit, but if your not a good soloer then do this 
7x
G]--------|-------|-------|-------|
D]-5------|-5-----|-5-----|-5-----|
A]--7-5-5-|--7-5-5|--7-5-5|--7-5-5|
E]0----7--|0----5-|3----7-|3----7-|

The Chorus X1

The Ending
G]----------|
D]----------| (During this part where its all quiet I once again like to
A]----------|  Solo a little and show off abit more, but once again that's
E]0--0--0--0|  going to have to be your call)

The go out by doing this:
Chorus 1x