John Dowland - Mrs Winters Jump Text Guitar Tab

Learn the song with the online tablature player
 Fret position shown above staff.
 Finger selection shown below staff.

                             Mrs. Winter's Jump

E||---0----5----0----|--5--------0----|--2------0-------|---------------|
B||------------------|----------------|------------3----|--2------------|
G||*-----------------|----------------|--2---------1----|--2------------|
D||*-----------------|----------------|--0--------------|---------------|
A||---0--------------|--0--------4----|------------2----|--0------------|
E||------------------|----------------|-----------------|---------------|
           4            4        3       2         4       2
                                         1         2       1
                                                   1

E|-------0---------|-----------------|-----------------|----------------||
B|--2--------------|--0----3----2----|--0--------------|----------------||
G|--2--------------|--0--------------|--1------2\-1/---|--2------------*||
D|-----------------|-----------------|-----------------|--2------------*||
A|--0--------------|------------0----|-----------------|--0-------------||
E|------------0----|--3--------------|--0---------0----|----------------||
                      3    4    2       1      2  2       2
                                                          1

E|------------------|-----------------|-----------------|----------------|
B|------------------|--0--------------|--3------0--2----|--0-------------|
G|*-------1----2----|------------2----|-----------------|--1-------------|
D|*--2--------------|--2------0-------|-----------------|--2-------------|
A|------------------|------------4----|--2---------0----|----------------|
E|------------------|-----------------|-----------------|-----------0----|

                                       II
E|-----------------|--0--------0----|--2------4--5----|--4------------|
B|-------2----3----|--2--------0----|-----------------|---------------|
G|-----------------|--2--------1----|-----------------|--4------------|
D|-----------------|----------------|--4--------------|--2------------|
A|--0--------------|----------------|-----------------|---------------|
E|-----------------|----------------|-----------------|---------------|
         2    3       2        1       1      4  5       4
                      1                3                 3
                                                         1

                                       II-------
E|--5----0---------|--0--------------|--2--------------|--7--------------|
B|------------2----|-------2---------|-------3----0----|-------9---------|
G|-----------------|------------2----|-----------------|------------9----|
D|-----------------|-----------------|-----------------|-----------------|
A|--0--------------|--0--------------|--2--------------|-----------------|
E|-----------------|-----------------|-----------------|--0--------------|

E|--5-------------|--5-------------|--2------0-------|----------------||
B|-----------5----|-----------5----|------------3----|--2-------------||
G|----------------|----------------|--2---------1----|--2------------*||
D|----------------|----------------|-----------------|---------------*||
A|--0-------------|--0--------4----|--0---------2----|--0-------------||
E|----------------|----------------|-----------------|----------------||