John Entwistle - My Size Text Guitar Tab

Learn song with the online tabulature player
MY SIZE - John Entwistle



Tuning: EADG

References to specific times in the song refer to the recording on the Smash Your 
Head Against the Wall album. 

Intro (comes in at 0:06)

G|----0-|
D|--02-2|
A|02----|
E|------|

Verse
G|----------------------0-|
D|0h2-2-0h2-2-0h2-2---02-2|
A|---0-----0-----0--02----|
E|------------------------| x3 for the first verse then x5 every time after

Pre-chorus (now you're always hanging 'round...)
G|--------------------------------|
D|5-3-----------------------------|
A|---3-33-2h32h35-555555----------|
E|----------------------5-55-55555|

Chorus (gonna bring you down to my size...)
G|------------------------------------------------------------------------------|
D|----33333-0-00-----------0-0000---------------3-3-333-0-00---------2-2222-20-2|
A|--------------0-0000-2-22------0-00-00000-0-00------------0-00-2-22---------0-|
E|5-55--------------------------------------------------------------------------|

Outro
G|--------|
D|--------|
A|76543---|
E|-----3-5|

Here's how it all comes together:
Intro
Verse 
Pre-chorus
Verse
Pre-chorus
Chorus
Verse 
Pre-chorus
Chorus
Verse
Pre-chorus
Outro

| /  slide up
| \  slide down
| h  hammer-on
| p  pull-off
| ~  vibrato
| +  harmonic
| x  Mute note