John Frusciante - Your Warning Text Guitar Tab

Learn the song with the online tablature player
G          C           Em         C
  You're warning me to get out of the way
G               C        Em       D7
  Was the safest thing to say
G       C           Em          C        G
  This trying to get out of a tight spot
G        C      Em         D7
Isn't even worth a shot
G C
And all of the world calls out at once
G C
give us pain
Em D
It's a friend to us
G C
And we don't decide for ourselves very much
G C Em D
what we are we owe to the fear of love

G C Bm
Don't bring it around
C G
I've reached for that
C Bm C
Iv reached for that
G C Bm
Once it is found
C G
It turns its back
C Bm C
It turns its back

Em Bm
Once it is called when you're married
Em G D
and you've fallen out of love
Em Bm
What's it called when the family
Em G D
you raised you don't know at all
Bm D C Em
Give us a point to miss

endings are killing me slow
E|-------------------------|
B|-8-10-8---5-7-8---0---0--|
G|------------------0—--0--|
D|------------------2—--2--|
A|-7--------5-------3—--3--|
E|------------------0---0--|

Bm D C Em
I only ask for this

empiness replace my soul
E|-------------------------|
B|-8-10-8---5-7-8---0---0--|
G|------------------0—--0--|
D|------------------2—--2--|
A|-7--------5-------3—--3--|
E|------------------0---0--|

(the piano melody)
E|----------------10-----7---7—-|-------------------------|
B|-8-10-8--5-7------------------|-8-10-8--7-5-3-----5---5-|
G|------------------------------|-------------------------|
D|------------------------------|-------------------------|
A|------------------------------|-------------------------|
E|------------------------------|-------------------------|