John Legend - Pda We Just Dont Care Text Guitar Tab

Learn song with the online tabulature player
This is my first tab.
I'm not sure if this is right, but it sounds right. This is approximately at 3:34 into the song.


E||-------------------|-------------------|-------------------|
B||-------------------|-------------------|-------------------|
G||-------------------|-------------------|-------------------|
D||----9---9---9---9--|-9---9---9---11----|9------------------|
A||-------------------|-------------------|----9--------------|
E||-------------------|-------------------|--------9/11~------|

E||-------------------|-------------------|-------------------|
B||-------------------|-------------------|-------------------|
G||-------------------|-------------------|-------------------|
D||----9---9---9---9--|-9---9---9---11----|9--------9/11------|
A||-------------------|-------------------|----9--------------|
E||-------------------|-------------------|-------------------|

I'm not sure how to time this. It's fairly simple if you know how the part goes.


E||-------------------|-------------------|-------------------|
B||---16--16-15-16----|15-------------15--|-------------------|
G||-------------------|----16-15--16------|--------13---15--16|
D||-------------------|-------------------|-16--16------------|
A||-------------------|-------------------|-------------------|
E||-------------------|-------------------|-------------------|


E||-------------------|-------------------|-------------------|
B||--------------14---|16--17--19b21-19---|-------------------|
G||13---15--16--------|-------------------|-------------------|
D||-------------------|-------------------|-------------------|
A||-------------------|-------------------|-------------------|
E||-------------------|-------------------|-------------------|

And there it is, i guess.