John Mayer - A Face To Call Home Text Guitar Tab

Learn song with the online tabulature player
Here it goes... my first tab! This is my favourite song off the new album and I'd 
thought I show you guys how I play it.

Please do not copy this without permission, thank you.


Guitar 1: Intro
E|--------------------------------------------------------------|
B|-10v--/15\-10v--/14\--12--10\--7~-/15\-10v--/14\--12--10\--7~-|
G|-11v--/16\-11v--/14\--12--11\--7~-/16\-11v--/14\--12--11\--7~-|
D|--------------------------------------------------------------|
A|--------------------------------------------------------------|
E|--------------------------------------------------------------|

Guitar 2: Intro/Verse
E|-------------------------------------|
B|--10--7--2--5------------------------|
G|--11--7--2--6------------------------|
D|--12--9--4--7------------------------|
A|---x--x--x--x------------------------|
E|--10--7--2--5------------------------|

Guitar 1: Verse
E|------------------------------------------|
B|--10----10-----7---7----2---2----5---5----|
G|------------------------------------------|
D|-----12---12-----9---9----4---4----7---7--|
A|------------------------------------------|
E|--10----10-----7---7----2---2----5---5----|
     T     T     T   T    T   T    T   T

Guitar 2: Pre-Chorus/Chorus/Solo
E|-----------     -----------|
B|--3--3--5--     --3--3--5--|
G|--4--2--6--     --0--2--6--|
D|--5--0--7--  or --0--0--7--|
A|--X--X--X--     --X--X--7--|
E|--3--2--5--     --3--2--5--|

Guitar 1: Pre-Chorus
E|--------------------------------------------------------------|
B|-10v--/15\-10v--/14\--12--10\--7~-/15\-10v--/14\--12--10\--7~-|
G|-11v--/16\-11v--/14\--12--11\--7~-/16\-11v--/14\--12--11\--7~-|
D|--------------------------------------------------------------|
A|--------------------------------------------------------------|
E|--------------------------------------------------------------|


Guitar 1: Solo

E|------------------------------------|
B|--3~-3-2~-2-------------------------|
G|------------4~-4-2~-2---0-2---------|
D|----------------------4-----2-0-----|
A|--------------------------------0---|
E|------------------------------------|

E|----------------------------------------------------------------|
B|---3~-3~-3~--3~-3~-----------15~--15~--15~--15~--15~------------|
G|---------------------6~-X2------------------------------18~-----|
D|--5~-5~-5~--4~-4~-4~-------17~--17~--17~--16~--16~--16~------X4-|
A|----------------------------------------------------------------|
E|----------------------------------------------------------------|

A lot of vibrato w/delay in this part. Play around with bending certain notes and 
sliding between them. Listen to the song if you want to play the exact solo.

E|----------14-------------14-------------14------------14----|
B|----15-17----17----15-17----17----15-17----17---15-17----17-|
G|------------------------------------------------------------| X2
D|--17------------17-------------17---------------------------|
A|------------------------------------------------------------|
E|------------------------------------------------------------|

E|----------14-------------14-------------14---------------------|
B|----15-17----17----15-17----17----15-17----17/-20-19-19\-15-15-|
G|---------------------------------------------------------------| X2
D|--17------------17-------------17------------------------------|
A|---------------------------------------------------------------|
E|---------------------------------------------------------------|

Guitar 1: Outro

E|--------------------|
B|-----15~--15~--15~--|
G|--------------------|
D|--17~--17~--17~-----|
A|--------------------|
E|--------------------|

Guitar 2: Outro

E|-----    -----|
B|--3--    --3--|
G|--0-- or --4--|
D|--0--    --5--|
A|--X--    --X--|
E|--3--    --3--|