John Mayer - Come When I Call Text Guitar Tab

Learn song with the online tabulature player
Come When I Call
John Mayer
Where the Light Is [live]


Tabbed by: Chamara Liyanage

Tuning: Standard (EADGBe)

Well here goes… my first tab


Intro
e|----5/7-5--------------------3-----------------------------------------|
B|-----------5b6-5--3------3---3h5---3------------------------------3----|
G|----------------------5--3------------------3b4—3b4---------------3----|
D|---------------------------------------5---------------5---------------|
A|----------------------------------------------------------5—3/1--------|
E|-----------------------------------------------------------------------|

e|---3----------------------------------|
B|---3--5-----3-------------------------|
G|------5-----3h4-----------------------|
D|---------5--------5--3----------------|
A|------------------------5-------------|
E|--------------------------------------|

Verse
e|--------------------------------------------------------|
B|-----5-5-x----3-3-x----3-3-x-----3-3-x----3-3-x---------|
G|-----5-5-x----3-3-x----3-3-x-----3-3-x----3-3-x---------|
D|-----4-4-x----2-2-x----2-2-x-----2-2-x----2-2-x---------|
A|-----5-5-x----3-3-x----3-3-x-----3-3-x----3-3-x---------|
E|--------------------------------------------------------|

Fill one
e|----------------------------------------------------------|
B|-----------5--3----3----3---------------------------------|
G|------3h4-----3----3h4—-3h4-------------------------------|
D|---5------------5-------------5--3------------5-----------|
A|------------------------------------5--3------------------|
E|------------------------------------------6---------------|

Verse x 1

Fill two
e|---------------------------------------------------------|
B|---------5—3h5p3----------3--6--5-------3------3---------|
G|----3h4-----------4—3h4-------------3---3------3h4-------|
D|--5----------------------------------------5-------------|
A|---------------------------------------------------------|
E|---------------------------------------------------------|

Verse x 1

Fill three
e|---------------------------------------------------------|
B|---5—3h5p3--------------3----3--------5-5-5--------------|
G|-----------4—3h4p3------3h4—-3h4------5-5-5--------------|
D|--------------------5------------5----4-4-4--------------|
A|--------------------------------------5-5-5--------------|
E|---------------------------------------------------------|

Verse x 1

Fill four
e|-----6--7--6--7—3h5p3----6--7--3---5/7--------------------|
B|-----5--6--5--6-------5--5--6----5------5-----------------|
G|--------------------------------------------3/5-3-----3~--|
D|---------------------------------------------------5------|
A|----------------------------------------------------------|
E|----------------------------------------------------------|

Verse x 1

Fill five
e|---6--7--6--7—3h5p3---------------------------------------|
B|---5--6--5--6-------5--3--3--3--3-3-------------------/7--|
G|-----------------------3--4--3--4-3-3/5-----3b4-------/7--|
D|-----------------------------------------5-------5----/6--|
A|------------------------------------------------------/7--|
E|----------------------------------------------------------|

Verse x 1

Fill six
e|----------------------------------------------------------|
B|--------------3-------3--------/6--5----------------------|
G|----3h4-------3h5-----3h5------/7--5----------------------|
D|--3------5---------5-------5------------------------------|
A|----------------------------------------------------------|
E|----------------------------------------------------------|

Chorus
e|-x------------x------------------------------------------------------|
B|-3------------3---6p3-------3----5/6-6-6—-5/6-6-6--5/6-6-6--5/6-6-6--|
G|-2------------2-------5-4---3----6/7-7-7—-6/7-7-7--6/7-7-7--6/7-7-7--|
D|-3--------2---3------------------------------------------------------|
A|-x----5-------x------------------------------------------------------|
E|-3------------3------------------------------------------------------|

Verse x 1

Fill seven
e|-----------------------------------------------------------|
B|------------3---5-3-6-5---------------3--------------------|
G|--------3-4-------------3--4-3h4p3----3h4~-----------------|
D|----3-5----------------------------5----------3-5----------|
A|--5-----------------------------------------------5--------|
E|-----------------------------------------------------------|

Verse x 1 (keep strumming chord until solo)

Solo
e|---------------------------------------------------------------------------|
B|-------8-8---8-10b-----8~--8-----8-8--10b---8--8---------------------------|
G|----/9-----9--------9---------9--------------------------------------------|
D|---------------------------------------------------------------------------|
A|---------------------------------------------------------------------------|
E|---------------------------------------------------------------------------|

e|----12b---12p11p8-----8--8-------8-----------------------------------------|
B|------------------10--------11b-----11-10-8h10p8----8----------------------|
G|--------------------------------------------------9-----9------------------|
D|---------------------------------------------------------------------------|
A|---------------------------------------------------------------------------|
E|---------------------------------------------------------------------------|

e|---------8---------------------8---------------------------16--------------|
B|----11b-----11--10—8h10p8---8—10b--10--8-----8~------------15--------------|
G|--------------------------9---------------9--------------------------------|
D|---------------------------------------------------------------------------|
A|---------------------------------------------------------------------------|
E|---------------------------------------------------------------------------|

e|---------------------------------------------------------------------16----|
B|------------------3-------3-----------------15---18b—18b—15h18p15-------11b|
G|------3h4--5------3h4-----3h4-------------------------------------17-------|
D|---5---------5---------5-------5-3-----------------------------------------|
A|-------------------------------------5/1-----------------------------------|
E|---------------------------------------------------------------------------|

e|---------3-----------------------------------------------------------------|
B|----3-6b----3h6p3-----3----3----3----------3----3--------------------------|
G|------------------5---3----3h4--3h4--------3h6--3--------------------------|
D|------------------------5------------5--------------5-3--------5-----------|
A|--------------------------------------------------------5-3~---------------|
E|---------------------------------------------------------------------------|

e|---------------15------------------------------------------15--15------15--|
B|--15-15-15—18b----r18-15--18-15-----15-----------15-15-18b---------18b----|
G|--------------------------------17--15---17--------------------------------|
D|--------------------------------------------17-----------------------------|
A|---------------------------------------------------------------------------|
E|---------------------------------------------------------------------------|

e|-------15-----15-17—15h17p15-----15-----15-----18b~--18-15----------------|
B|--18b-----18b-----------------18-----15----15--------------18-15-----------|
G|-----------------------------------------------------------------17--------|
D|---------------------------------------------------------------------------|
A|---------------------------------------------------------------------------|
E|---------------------------------------------------------------------------|

e|---------------------------------------------------------------------------|
B|----------------------15--18-17-15h17p15-----------------------------------|
G|---15h17p15------15---15-----------------17—15h16p15----------------------|
D|-------------17--------------------------------------17—15h17p15----------|
A|-----------------------------------------------------------------17--------|
E|---------------------------------------------------------------------------|

e|---------------------------------------------------------------------------|
B|---------------------------------------------------------------------------|
G|----------------------------------------------weird-chords-which-i---------|
D|----------------------15----17---15--------------didnt-know----------------|
A|--15h16p15-----13h15-----15---------17/------------------------------------|
E|-----------18-----------------------------------------then-----------------|

e|---------------------------------------------------------------------------|
B|---11—8h10p8----8---------------------------------------------------------|
G|-------------9-----9/5--3---3----------------------------------------------|
D|--------------------------5---5-3------------------------------------------|
A|----------------------------------5~---------------------------------------|
E|---------------------------------------------------------------------------|

Chorus x 1

Verse x 1




Fill eight
e|---------------------------------------------------------------------------|
B|---------------------------------------------------------------------------|
G|-----------3h4p3-----------------------------------------------------------|
D|----3-5----------5-3h5p3---------------------------------------------------|
A|-5------3----------------5-3---3-5-----------------------------------------|
E|-----------------------------6-----6~--------------------------------------|

Verse x 1

Fill nine
e|---------------------------------------------------------------------------|
B|----------------------3----------------------------------------------------|
G|----------------------3h4--------------------------------------------------|
D|----3-5---3-5---3-5--------3-5---------------------------------------------|
A|--5-----5-----5----------------5~------------------------------------------|
E|---------------------------------------------------------------------------|

Verse x 1 

Fill ten
e|---------------------------------------------------------------------------|
B|---------------------------------------------------------------------------|
G|-----------------------3b~-----------------------3h4p3---------------------|
D|-----3-5---3-5---3-5---------3-5---3-5----3-5-----------5--3---------------|
A|---5-----5-----5-----------5-----5-----5----------------------5-4—3~------|
E|---------------------------------------------------------------------------|

Verse x 1

Fill eleven
e|---------------------------------------------------------------------------|
B|---------------------------------------------------------------------------|
G|--------------------then-some-other-work-down-the-guitar-which-------------|
D|-----3-5---3-5-----------was-t0-hard-to-tab--------------------------------|
A|--5------5-----5-----------------------------------------------------------|
E|---------------------------------------------------------------------------|

Verse x 1

Outro
e|--5/7--5-----3-------------------------------------------------------------|
B|----------5---------------3----------then-random---chords-you-can-make-up--|
G|-----------------3h5-3----3------------------------------------------------|
D|-----------------------5-----5---------------------------------------------|
A|---------------------------------------------------------------------------|
E|---------------------------------------------------------------------------|

Well that’s it

Hope that helped =] please rate.

|b: bend up
|p: pull off
|/: slide
|h: hammer