John Mayer - Out Of My Mind Text Guitar Tab

Learn song with the online tabulature player
e----------------------------------------------------------------|
B------------10---------13b--10------------------------12--------|
G------------10h11-------------12-10--------------10h11--10h11---|
D---------12------------------------12-9-----10-12---------------|
A---12-14---------12-----------------------12--------------------|
E----------------------------------------------------------------|


e------------10-----------------------------10-----------------|
B--------------10-13-10--10-----------------10-----------------|
G----------10----------12--10h11--------------10------11/10----|
D--10-10/12---------------------12-12/10--------12----10/9-----|
A-------------------------------------------------12--11/10----|
E--------------------------------------------------------------|


e--------------------------10--------------------------------------|
B---------13-10------------10--------------------------------------|
G----10-12b---r-10---------------11/10-----------------------------|
D--12-------------12-12-10----12-10/-9-----------------------------|
A--------------------------------11/10-----------------------------|
E------------------------------------------------------------------|

e---------------------------------------------------------------------|
B----------10-13-10h13p10------------------------15-17--15--17br\-----|
G----10-12b--------------12-10------10h11-----/16-----16--16----------|
D--12-------------------------12-10-12---12---------------------------|
A---------------------------------------------------------------------|
E---------------------------------------------------------------------|

e-17-----------------------------------------------------------------------|
B---15-15/12----15------------------------------------------------------12-|
G-------------16--16------------------16--------------------------------12-|
D-------------17----17-12-12--12-14/16---16-12--------------------------11-|
A---------------------------14----------------13-12-11-10--9-10-11-12---12-|
E--------------------------------------------------------------------12----|
                rake up stroke
e--------10-11-12--------12----------------------------|
B-10-13b---------12b-10----10---------------10---------|
G--------------------12------(12)-----------10---------|
D--------------------11----------/17--------9----------|
A-----------------------------------16\-----10---------|
E------------------------------------------------------|
                      ^
e-----------------------------------------------------|
B--12b-10-12b-10--------------------------------------|
G---------------12-10-10h11----------10h11-10h11------|
D--------------------------12--10-12-12----12----12---|
A----------------------------12-----------------------|
E-----------------------------------------------------|

e--------------10-10---10-10-10----------------------|
B---------10-12--------12-10-10---10--------------12-|
G----10h11-------------10-10-10----9--------------12-|
D--12------------------10-10-12---10-----------11-11-|
A----------------------------------9--10-11-12----12-|
E----------------------------------------------------|