John Vanderslice - Pale Horse Text Guitar Tab

Learn song with the online tabulature player
Capo on 2nd fret
All tabs in reference to that (2nd fret= open, 3rd fret=1, etc)

This is how he plays it live, and you might have to fiddle with the rhythm a little to 
it sound like the recording, but these are the right fingerings

Intro
---------------------------------------------------------------|
---------------------------------------------------------------|
---------------------------7-----------------------------------|  repeat twice
------------------------x--7-----------------------------------|   for intro
-0-----------2-x-\--5-5-x--5----------2-x--/-5-5--/--2-2-------|
-0----0-3-5--0-x----0-0-x------0-3-5--0-x----0-0-----0-0-------|


Verse is same as intro, but on the 2nd time through it switches to this in order to make 
transition to the chorus easier...

-----------------------------------------------------------------|
-----------------------------------------------------------------|
---------------------------7----------------------7--------------|
------------------------x--7----------------------7--------------|
-0-----------2-x-\--5-5-x--5----------2-x--/-5-5--5--------------|
-0----0-3-5--0-x----0-0-x------0-3-5--0-x----0-0-----------------|

common wants and common cares  cuts the human heart with tears


Chorus
---------------------------------------------------------------|
---------------------------------------------------------------|
---------------------------------------------------------------|  repeat
-7----7-7-6--6----6-6-5--5----5-5-4--4-4-4---------------------|   as
-0----0-0-0--0----0-0-0--0----0-0-0--0-0-0---------------------|    necessary
-0----0-0-0--0----0-0-0--0----0-0-0--0-0-0---------------------|
rise like lions...   after    a     slumber


Pre-verse transition

-------------------------------------------------------------------|
-------------------------------------------------------------------|
-5---5-5-5-5---5-5-5-5---5-5-5---5--5--5---------------------------|
-5---5-5-5-5---5-5-5-5---5-5-5---5--5--5---------------------------|
-3---3-3-3-3---3-3-3-3---3-3-3---3--3--3---------------------------|
-3---3-3-3-3---3-3-3-3---3-3-3---3--3--3---------------------------|


ending thing...

------------------------------------------------------------------|
------------------------------------------------------------------|
--0-2-4-5---5-5---4-2-0-2------repeat-----------------------------|
------------------------------------------------------------------|
------------------------------------------------------------------|
------------------------------------------------------------------|