Johnny Cash - All Over Again Text Guitar Tab

Learn song with the online tabulature player
intro

e|---------------------------------------------------------------------------|
B|---------------------------------------------------------------------------|
G|---------------------------------------------------------------------------|
D|----0-4-4-4--0-4-4-4-------------------------------------------------------|
A|---------------------------------------------------------------------------|
E|---------------------------------------------------------------------------|

solo
e|---------------------------------------------------------------------------|
B|---------------------------------------------------------------------------|
G|---------------------------------------------------------------------------|
D|-----0-4-4-4--0-4-4-4--0-4-4-4--0-4-4-4--0-4-4-4--0-4-4-4------------------|
A|---------------------------------------------------------------------------|
E|---------------------------------------------------------------------------|


e|---------------------------------------------------------------------------|
B|---------------------------------------------------------------------------|
G|---------------------------------------------------------------------------|
D|-------1-1-1----1-1-1----1-1-1----1-1-1-----1-1-1------1-1-1---------------|
A|------1-------1---------1--------1-------1-----------1---------------------|
E|---------------------------------------------------------------------------|

e|---------------------------------------------------------------------------|
B|---------------------------------------------------------------------------|
G|---------------------------------------------------------------------------|
D|--------0-4-4-4----0-4-4-4-------------------------------------------------|
A|---------------------------------------------------------------------------|
E|---------------------------------------------------------------------------|