Johnny Cash - Get Rhythm Text Guitar Tab

Learn the song with the online tablature player
P.M.= Palm Mute

Here You Go

HEEY GET RHYTHM!-------------------------|
-----------------------------------------|
-----------------------------------------|
-----------------------------------------|
----------------3-0(x7)-3-5(x4)-3-0(x4)--|
-----------------------------------------|
-----------------------------------------|
            P.M._______________________

----------------------------------|
----------------------------------|
---------------------1-0----------|
-----3-0(x8)-3-5(x4)-----3-0------|
-----------------------------3-0--|
----------------------------------|
P.M.____________________________

------------------------------------------------------------------------|
------------------------------------------------------------------------|
------------------------------------------------------------------------|
------------------------------------------------------------------------|
------3---3---3---3---3---3---3---3---3---3---3---3---3---3---3---3---3-|
----1--1---1---1---1---1---1---1---1---1---1---1---1---1---1---1---1----|
P.M.___________________________________________________________________

------------------------------|
------------------------------|
------------------------------|
----0-3-0(x8)-3-5(x4)-3-0(x4)-|
------------------------------|
------------------------------|
P.M._________________________

---------------------------------|
---------------------------------|
--------------------1-0----------|
----3-0(x8)-3-5(x4)-----3-0------|
----------------------------3-0--|
---------------------------------|
P.M.___________________________

SOLO
Listen To The Song To Get The Rhythm)
--------13-13---------13-13-----------13-13---------13-13----|
-10-13--------13-10-13------13-10-13--------13-10-13------13-|
-------------------------------------------------------------|
-------------------------------------------------------------|
-------------------------------------------------------------|
-------------------------------------------------------------|

-------------------------------------------------------------|
-------------------------------------------------------------|
-------15-15----------15-15----------15-15---------15-15-----|
-12-15-------15-12-15-------15-12-15-------15-12-15------15--|
-------------------------------------------------------------|
-------------------------------------------------------------|

-----------------------------------------------------------------------------|
-----------------------------------------------------------------------------|
-----------------------------------------------------------------------------|
-3-0-0-3-0-0-3-0-0-0-3-0-0-3-0-0-0-3-0-0-3-0-0-0-3-5-5-3-5-5-5-3-5-5-3-5-5-5-|
-----------------------------------------------------------------------------|
-----------------------------------------------------------------------------|

---------------|
---------------|
-1-0-----------|
-----3-0-------|
---------3-0---|
-------------1-|
End Solo

-----------------------------|
-----------------------------|
-----------------------------|
----3-0(x8)-3-5(x4)-3-0(x4)--|
-----------------------------|
-----------------------------|
P.M._______________________

----------------------------------|
----------------------------------|
---------------------1-0----------|
----3-0(x8)-3-5(x4)-----3-0-------|
-----------------------------3-0--|
----------------------------------|
P.M.____________________________

---------------------------------------------------------------------------|
---------------------------------------------------------------------------|
---------------------------------------------------------------------------|
---------------------------------------------------------------------------|
------3---3---3---3---3---3---3---3---3---3---3---3---3---3---3---3---3----|
----1--1---1---1---1---1---1---1---1---1---1---1---1---1---1---1---1-------|
P.M.___________________________________________________________________

-----------------------------|
-----------------------------|
-----------------------------|
----3-0(x8)-3-5(x4)-3-0(x4)--|
-----------------------------|
-----------------------------|
P.M._______________________

--------------------------------------|
--------------------------------------|
--------------------------------------|
----3-0(x8)-3-5(x8)-----3-0---------3-|
----------------------------3-0-----3-|
--------------------------------1---1-|
P.M._____________________________