Johnny Cash - Heart Of Gold Text Guitar Tab

Learn the song with the online tablature player
   ( lead-in to solo  )
e|--------------------------------------------------------------------------|
B|-15br-13-11--13p11----13b-13p11-11p10-------------------------------------|
G|-------------------12-----------------12-10h12p10-----10----------------10|
D|-------------------------------------------------10h12--12v--8/10-8-10/12-|
A|--------------------------------------------------------------------------|
E|--------------------------------------------------------------------------|

e|--------------------------------------------------------------------------|
B|-------------------------13b-rp13p11-13b-p13-rp13p11-10-13-11-----/11-11--|
G|--------------------------------------------------------------8/5---------|
D|8/10-8-10-8-8h10p8/7h8----------------------------------------------------|
A|----------------------8v--------------------------------------------------|
E|--------------------------------------------------------------------------|

e|--------------------------------------------------------------------------|
B|11-11-10----------10------------------------------------------------------|
G|--------12-10-10v----12v--------------------------------------------------|
D|--------------------------------------------------------------------------|
A|--------------------------------------------------------------------------|
E|--------------------------------------------------------------------------|