Johnny Cash - Hey Porter Text Guitar Tab

Learn song with the online tabulature player
The real, accurate Hey Porter played by Luther Perkins in 1954 from Sun Studio and 
the following July in 1955. This is my property, do not copy.

E-00000-44444-000---0-00000-44444-3-222 -------|
B-----------------2---------------------4-0----|
G----------------------------------------------|
D----------------------------------------------|
A----------------------------------------------|
E----------------------------------------------|

E-------------------------------------------------|
B-------------------------------------------------|
G-------------------------------------------------|
D-2222-555-4-555-4-2 ---222-----------------------|
A--------------------4------42424242--------------|
E------------------------------------2b-0-420-----|

Capo 1st Fret

viper_ao1@hotmail.com

ultimate-guitar.com