Johnny Cash - Mean Eyed Cat Text Guitar Tab

Learn song with the online tabulature player
This is Luther Perkin's solo at the start and the solo that's in between verses that are 
by johnny cash

Intro Solo Before the Singing Starts
-------------------------------------------------------------|
-------------------------------------------------------------|
-------------------------------------------------------------|
---------------22222-----------------------------------------|
-------00000-4-------2---------------------------------------|
-0-2-4-----------------3-2-0-2-4-5-66666-5-6-4-3-2-4-3-2-0---|

Solo in between verses
-------------------------------------------------------------------------|
-------------------------------------------------------------------------|
-------------------------------------------------------------------------|
---------------22222---------------------22222---------------------22222-|
-------00000-4-------2-------------00000--------2-------------00000------|
-0-2-4-----------------3-2-0-0-2-4----------------3-2-0-0-2-4------------|


----------------------------------|
----------------------------------|
----------------------------------|
----------------------------------|
2---------------------------------|
--3-2-0-2-4-5-66666-4-3-2-4-3-2-0-|