Johnny Cash - San Quentin Text Guitar Tab

Learn song with the online tabulature player
Johnny Cash - San Quentin Basstab

Guitar solo played by Bob Wootton
I used the DVD "Johnny Cash - Live at Montreux 1994" to write the
Following TAB. Hey guys this is perfect.

e|------------------------------------------------------|
B|------------------------------------------------------|
G|------------------------------------------------------|
D|------------------------------------------------------|
A|-----0-00—0-2-20-2-4---0-----0-00—0-2-24-2-0--2-4-0---|
E|-0-0-----------------0---0-0--------------------------|

e|------------------------------------------------------|
B|------------------------------------------------------|
G|------------------------------------------------------|
D|-2-3-4-44-42-4--2-0-----------------------------------|
A|----------------------4---0-----0-00-0-2-24-2-0---0---|
E|------------------------0---0-0-----------------0---0-|

TAB by Andreas Bauer, Germany