Johnny Cash - Train Of Love Text Guitar Tab

Learn the song with the online tablature player
This is Luther Perkins' solo to "Train Of Love".

|--------------------------------------------------------------------------|
|--------------------------------------------------------------------------|
|--------------------------------------------------------------------------|
|---------------------------------------------------------------2-4-2------|
|---------2-------------------------2---------------------0-2-4-------4-4--|
|-0-0-2-4---4-2-0-0-0-0-0-0-0--0-2-4---4-2-0-0-0-0-0-0-0-------------------|

|--------------------------------------------------------------------------|
|--------------------------------------------------------------------------|
|--------------------------------------------------------------------------|
|-2-4-2-----2-4-2----------------------------------------------------------|
|-------4-4-------4-4--2---------------------------------------------------|
|-------------------------4-2-0--4-2-0--4-2-0------------------------------|

Any suggestions about this or the intro tab I submitted let me know (screamingeagle1 @ btinternet dot com)