Johnny Cash - When The Man Comes Around Text Guitar Tab

Learn song with the online tabulature player
When the Man Comes Around
by Johnny Cash

Now the first part of this song is a combination of dead notes and notes.  It is a bit 
to see at first but easy once you have it.  What I do is put my index finger across the 
fret as if you were playing a dead note, then use my middle and ring finger to play.

Verse

E|----------------|
B|----------------|
G|--x--x--x--x--x-|X 22
D|--x--x--x--x--3-|
A|--x--x--x--x--2-|
E|--x--3--x--x--x-|

Bridge
            Am            F              G
E|----------0---0-0-0-0--|--1---1-1-1-1--3---3-3-3-3--|
B|----------1---1-1-1-1--|--1---1-1-1-1--3---3-3-3-3--|
G|----------2---2-2-2-2--|--2---2-2-2-2--0---0-0-0-0--|
D|----------2---2-2-2-2--|--3---3-3-3-3--0---0-0-0-0--|
A|-3--2--0--0---0-0-0-0--|--3---3-3-3-3--2---2-2-2-2--|
E|-----------------------|--1---1-1-1-1--3---3-3-3-3--|

Verse

E|----------------|
B|----------------|
G|--x--x--x--x--x-|X 14
D|--x--x--x--x--3-|
A|--x--x--x--x--2-|
E|--x--3--x--x--x-|

Bridge
            Am            F              G
E|----------0---0-0-0-0--|--1---1-1-1-1--3---3-3-3-3--|
B|----------1---1-1-1-1--|--1---1-1-1-1--3---3-3-3-3--|
G|----------2---2-2-2-2--|--2---2-2-2-2--0---0-0-0-0--|
D|----------2---2-2-2-2--|--3---3-3-3-3--0---0-0-0-0--|
A|-3--2--0--0---0-0-0-0--|--3---3-3-3-3--2---2-2-2-2--|
E|-----------------------|--1---1-1-1-1--3---3-3-3-3--|


Chorus

    C
E|--0-0-0-0--0-0-0-0--|--3-3-3-3--3-3-3-3--|
B|--1-1-1-1--1-1-1-1--|--1-1-1-1--1-1-1-1--|
G|--0-0-0-0--0-0-0-0--|--0-0-0-0--0-0-0-0--|
D|--2-2-2-2--2-2-2-2--|--2-2-2-2--2-2-2-2--|X4
A|--3-3-3-3--3-3-3-3--|--3-3-3-3--3-3-3-3--|
E|--------------------|--------------------|

E|---------------|--0-0-0-0--0-0-0-0--|--3-3-3-3--3-3-3-3--|
B|---------------|--1-1-1-1--1-1-1-1--|--1-1-1-1--1-1-1-1--|
G|---------------|--0-0-0-0--0-0-0-0--|--0-0-0-0--0-0-0-0--|
D|---------------|--2-2-2-2--2-2-2-2--|--2-2-2-2--2-2-2-2--|X4
A|--3----2----0--|--3-3-3-3--3-3-3-3--|--3-3-3-3--3-3-3-3--|
E|---------------|--------------------|--------------------|

E|----------------|
B|----------------|
G|--x--x--x--x--x-|X 4
D|--x--x--x--x--3-|
A|--x--x--x--x--2-|
E|--x--3--x--x--x-|

    C
E|--0-0-0-0--0-0-0-0--|--3-3-3-3--3-3-3-3--|
B|--1-1-1-1--1-1-1-1--|--1-1-1-1--1-1-1-1--|
G|--0-0-0-0--0-0-0-0--|--0-0-0-0--0-0-0-0--|
D|--2-2-2-2--2-2-2-2--|--2-2-2-2--2-2-2-2--|X4
A|--3-3-3-3--3-3-3-3--|--3-3-3-3--3-3-3-3--|
E|--------------------|--------------------|

E|---------------|--0-0-0-0--0-0-0-0--|--3-3-3-3--3-3-3-3--|
B|---------------|--1-1-1-1--1-1-1-1--|--1-1-1-1--1-1-1-1--|
G|---------------|--0-0-0-0--0-0-0-0--|--0-0-0-0--0-0-0-0--|
D|---------------|--2-2-2-2--2-2-2-2--|--2-2-2-2--2-2-2-2--|X4
A|--3----2----0--|--3-3-3-3--3-3-3-3--|--3-3-3-3--3-3-3-3--|
E|---------------|--------------------|--------------------|


Verse

E|----------------|
B|----------------|
G|--x--x--x--x--x-|X 4
D|--x--x--x--x--3-|
A|--x--x--x--x--2-|
E|--x--3--x--x--x-|