Johnny Cash - You Are My Sunshine Text Guitar Tab

Learn the song with the online tablature player
E|--------------------------------------------------2--0----------|
B|--------0--1h2--2--2--0--2-------------0--2--2h3--------3--1h2--|
G|-----2----------------------2--2----2---------------------------|
D|--2-------------------------------------------------------------|
A|----------------------------------------------------------------|
E|----------------------------------------------------------------|

The other night dear as I laid sleeping
I dreamed I held you in my arms

E|----------------2--2--0--------------------------------------|
B|-----0--2--2h3-----------3--1h2----------0--2--2h3--0--2-----|
G|--2------------------------------2----2-------------------2--|
D|-------------------------------------------------------------|
A|-------------------------------------------------------------|
E|-------------------------------------------------------------|

When I awoke dear I was mistaken
So I bowed my head and I cried

E|--------------------------------------------------2--0----------|
B|--------0--1h2--2--2--0--2-------------0--2--2h3--------3--1h2--|
G|-----2----------------------2--2----2---------------------------|
D|--2-------------------------------------------------------------|
A|----------------------------------------------------------------|
E|----------------------------------------------------------------|

You are my sunshine
My only sunshine
You make me happy when skies are gray

E|----------------2--2--0--------------------------------------|
B|-----0--2--2h3-----------3--1h2----------0--2--2h3--0--2-----|
G|--2------------------------------2----2-------------------2--|
D|-------------------------------------------------------------|
A|-------------------------------------------------------------|
E|-------------------------------------------------------------|

You'll never know, dear how much I love you
Please don't take my sunshine away

The other night dear as I lay sleeping

I dreamed I held you in my arms

When I awoke dear I was mistaken

So I bowed my head and I cried

You are my sunshine, my only sunshine

You make me happy when skies are gray

You'll never know dear, how much I love you

Please don't take my sunshine away

I always loved you, and made you happy

and no one else could come between

but now you've left me to love another

you have shattered all of my dreams

You are my sunshine, my only sunshine

You make me happy when skies are gray

You'll never know dear, how much I love you

Please don't take my sunshine away