Johnny Flynn - Barnacled Warship Text Guitar Tab

Learn song with the online tabulature player
-------------------------------------------------------------------------------
                             Barnacled Warship - Johnny Flynn and The Sussex Wit
Tabbed By : Luke Williams
e-mail: buy me dinner first.

Tuning:standarderino

Repeat for all the verses:

G|------------------------------------------------------------------|
D|-----------------5-5-5-------------------------------------5-5-5--|
A|---------------7-------7-5-5-5-7-8-8-8-8-8-8-8-8-8-8-8-8-8--------|
E|-5-5-5-7-8-8-8----------------------------------------------------|




The illusive chorus:

G|------------------------------------------------------------------|
D|------------------------------------------------------------------|
A|---------------------------------3-3-3-3-3-3-3-3-3-3-3-3-3-3-3-3--|
E|-3-3-3-3-3-3-3-3-1-1-1-1-1-1-1-1----------------------------------|

G|-----------------------------------------------------------------------------|
D|-----------------------------------------------------------------------------|
A|-----------------------------------------------------------------------------|
E|-3-3-3-3-3-3-3-3-1-1-1-1-1-1-1-1-5-5-5-5-5-5-5-5-5-5-5-5-5-5-5-5-------------|

| /  slide up
| \  slide down
| h  hammer-on
| p  pull-off
| ~  vibrato
| +  harmonic
| x  Mute note
===============================================================================