Johnny Hobo And The Freight Trains - Church Hymn For The Condemned Text Guitar Tab

Learn song with the online tabulature player
Intro/Verses

e------------------|
b------------------|
g-------------4----|
d-4---7---2---4----|
a-4---7---2---2----|
e-2---5---0--------|

Chorus

e------------------|
b------------------|
g-------------7----|
d-7---2---4---7----|
a-7---2---4---5----|
e-5---0---2--------|

And that's basically the whole song, you just gotta figure out the strumming and muting, 
If you're looking for Johnny Hobo Mp3s, or any tabs that aren't online, email me at 
and I'll see what I can do.