Johnny Hobo And The Freight Trains - Politics Of Holy Shit I Just Cut My Hand Open On A Broken Bottle Text Guitar Tab

Learn song with the online tabulature player
------------------------------------------------------------------------------
The Politics of Holy Shit I Just Cut
My Hand Open On A Broken Bottle
- Johnny Hobo And The Freight Trains
-------------------------------------------------------------------------------
Tabbed by: Matty B
Email:          Oopschocodonuts@yahoo.com

Tuning:standard

the other ones are wrong, here's the right way.

e|------------------------------------------------------------|
B|------------------------------------------------------------|
G|------------11-11-11XX--8-8-8XX--9-9-9XX--------------------|
D|---9-9-9XX--11-11-11XX--8-8-8XX--9-9-9XX--------------------|
A|---9-9-9XX--9---9--9XX--6-6-6XX--7-7-7XX--------------------|
E|---7-7-7XX--------------------------------------------------|

| /  slide up
| \  slide down
| h  hammer-on
| p  pull-off
| ~  vibrato
| +  harmonic
| x  Mute note