Johnny Hobo And The Freight Trains - Put Arsenic In The Frosting Next Time Text Guitar Tab

Learn song with the online tabulature player
Johnny Hobo and The Freight Trains
Put Arsenic In The Frosting Next Time
Anarchy Means I Hate You DEMO


intro riff
e-------------------------------------------------|
b-------------------------------------------------|
g------------5----7-------------------------------|
d--5-5-5-x-x-5-x-x-7-x-x-7-7-7-7-7-10-10-10-10-10-|
a--5-5-5-x-x-3-x-x-5-x-x-7-7-7-7-7-10-10-10-10-10-|
e--3-3-3-x-x---x-x---x-x-5-5-5-5-5-8--8--8--8--8--|

Verse
e-----------------------------|
b-----------------------------|
g-------5-5-5-----------------|
d-5-5-5-5-5-5-7-7-7-10-10-10--|
a-5-5-5-3-3-3-7-7-7-10-10-10--|
e-3-3-3-------5-5-5-8--8--8---|
  . .   . .   . .   . .

Chourus
e----------------------------------------------|
b----------------------------------------------|
g---------------5-5-5--------------------------|
d-5-5-5-x-x-x-x-5-5-5-x-x-x-x-7-7-7-x-x-x-x-10-|
a-5-5-5-x-x-x-x-3-3-3-x-x-x-x-7-7-7-x-x-x-x-10-|
e-3-3-3-x-x-x-x-------x-x-x-x-5-5-5-x-x-x-x-8--|

If you need any JH tabs for Mp3s email me at fistfightrevolution@yahoo.com