Johnny Kidd and the Pirates - Ill Never Get Over You Text Guitar Tab

Learn song with the online tabulature player
Ill Never Get Over You
Recorded & Released in 1963 reaching number 4 in UK Charts
Original Bassist: Johnny Spence. Tabbed by bass50611
Great song and a real foot tapper.
Any comments email me bass254@btinternet.com
Have fun!

Intro:
G|-----5---7---5-----------------------------|
D|---7---------------------------------------|
A|----------------------5---5----------------|
E|-----------------5---5-----5---5-0---2-4---|

Verse:
G|----------------------------------------------------------------------|
D|----------------------------------------------------------------------|
A|-------------------------------------5-55---7-77------5---5-----7---7-|
E|-5-55---0-00---2-4-5-55---0-00---2-4-------------5---5-----5---5------|

G|----------------------------------------------------------------------|
D|----------------------------------------------------------------------|
A|-------------------------------------5-55---7-77------5---5-----7---7-|
E|-5-55---0-00---2-4-5-55---0-00---2-4-------------5---5-----5---5------|

G|---------------------|
D|---------77-55-44----|
A|------------------77-|
E|-5-5-5-5-------------|

Bridge:
G|--------------------------------------------------------------------|
D|---------5-5-5-----------7-7-7-----------5-5-5---3-3-3--------------|
A|-5-5-5------5----7-7-7------7----5-5-5------5-------3----3-3-3------|
E|----5---------------7---------------5-----------------------3-------|

G|---------------------|
D|---------------------|
A|-7-7-7---77-55-44----|
E|----7-------------77-|

Repeat 1st Line of Verse:

Solo:
G|-------------------66--------------------66---------44---------66-|
D|--------44----66-99-----------44----66-99------44-77------66-99---|
A|---44-77----77-----------44-77----77---------55---------77--------|
E|-55-------------------55------------------------------------------|

G|------7--77---------------------------------|
D|-7--77-----7--77------7-7-7-7---77-55-44----|
A|----------------7--77--------------------77-|
E|--------------------------------------------|

Repeat Bridge

Repeat 1st Line of Verse:

Outro:
G|------------------------5---7---5-------|
D|---------------------7----------------7-|
A|------5---5-----7---7-------------------|
E|-5---5-----5---5------------------------|