Johnny Nash - I Can See Clearly Now Text Guitar Tab

Learn song with the online tabulature player
I Can See Clearly Now                               
 
                             Nash, Johnny  

This is a cool song for a novice as long as the player uses all four digits on the 
fretting hand.  In order to catch the Reggae feel, it will be necessary to listen to the song.    



     Q    Q    E  E  E  E     Q    Q    E  E  E  E   
G||------------------------|------------------------|
D||------------------------|------------------------|
A||--5----L----------------|--5----L----------------|
E||---------------5--5-----|---------------5--5-----|


    Q    E  E  E  E  E  E     Q    E  Q    E  E  E     Q    Q    E  E  E  E   
|--------------------2-----|---------------------2--|------------------------|
|*----------------4-----4--|--5----L-------4--5-----|------------------------|
|*--5----L-----5-----------|------------------------|--5----L----------------|
|--------------------------|------------------------|---------------5--5-----|


  Q    Q    E  E  E  E     Q    E  E  E  E  E  E     Q    E  E  E  E  E  E   
------------------------|-------------------2-----|-------------------------|
------------------------|----------------4-----4--|--5----L-----------2-----|
--5----L----------------|--5----L-----5-----------|----------------0--------|
---------------5--5-----|-------------------------|-------------2-----------|


  H        H           E  E  E  E  E  E  Q       Q    E  E  E  E  E  E   
--------------------|-------------------------|-------------------2-----|
--------------------|-------------------------|----------------4-----4--|
--2-----------------|-----7--------7----------|--5----L-----5-----------|
--------------------|--5--------5-----7-------|-------------------------|


  Q    E  Q    E  E  E     Q    Q    E  E  E  E     Q    Q    E  E  E  E   
---------------------2--|------------------------|------------------------|
--5----L-------4--5-----|------------------------|------------------------|
------------------------|--5----L----------------|--5----L----------------|
------------------------|---------------5--5-----|---------------5--5-----|


  W                   H        E  E  E  E     Q    Q    E  E  E  E   
-------------------|-----------------------|------------------------|
-------------------|--5--------------------|------------------------|
--3----------------|-----------------------|--5----L----------------|
-------------------|--------------5--5-----|---------------5--5-----|


  Q    Q    E  E  E  E     H        E  E  E  E     H        E  E  E  E   
------------------------|-----------------------|-----------------------|
------------------------|-----------------------|--5--------------------|
--5----L----------------|--3--------------------|-----------------------|
---------------5--5-----|--------------3--3-----|--------------5--5-----|


  Q    Q    E  E  E  E     Q    Q    E  E  E  E       W                 
------------------------|-------------------------||-------------------|
------------------------|------------------------*||-------------------|
--5----L----------------|--5----L----------------*||--8----------------|
---------------5--5-----|---------------5--5------||-------------------|


  W                   W                   W                   W                 
-------------------|-------------------|-------------------|-------------------|
-------------------|--5----------------|--L----------------|-------------------|
--L----------------|-------------------|-------------------|--8----------------|
-------------------|-------------------|-------------------|-------------------|


  W                   W                   W                   W                 
-------------------|-------------------|-------------------|-------------------|
-------------------|--7----------------|--L----------------|--6----------------|
--L----------------|-------------------|-------------------|-------------------|
-------------------|-------------------|-------------------|-------------------|


  W                   W                   W                   W                 
-------------------|-------------------|-------------------|--5----------------|
--5----------------|--6----------------|--5----------------|-------------------|
-------------------|-------------------|-------------------|-------------------|
-------------------|-------------------|-------------------|-------------------|


  W                   W                   W                   
--4----------------|-------------------|--------------------||
-------------------|--7----------------|--L----------------*||
-------------------|-------------------|-------------------*||
-------------------|-------------------|--------------------||




Duration Legend
---------------
W - whole
H - half
Q - quarter
E - 8th
S - 16th
T - 32nd
X - 64th
. - note dotted
|-n-|  - n-tuplets
L - let ring (previous note)