Johnny Rivers - Poor Side Of Town Text Guitar Tab

Learn song with the online tabulature player
Johnny Rivers - Poor Side of Town
By:Andrew (Guitarguyx182@belg88.com)

Intro
e|---------------------------------------------------------------------------|
B|---------2-2-2-2-------2-2-2-2---------------------------------------------|
G|-1-1-1-1-2-2-2-2-1-1-1-2-2-2-2---------------------------------------------|
D|-1-1-1-1-2-2-2-2-1-1-1-2-2-2-2---------------------------------------------|
A|-2-2-2-2-0-0-0-0-2-2-2-0-0-0-0---------------------------------------------|
E|---------2-2-2-2-------2-2-2-2---------------------------------------------|
Verse/Chorus
e|---------------------------------------------------------------------------|
B|-------2-2-2-------2-2-2--2-2-4-4-2-2-2-2-----2-2-----2-2------------------|
G|-1-1-1-2-2-2-1-1-1-2-2-2--2-2-4-4-2-2-2-2-1-1-2-2-1-1-2-2------------------|
D|-1-1-1-2-2-2-1-1-1-2-2-2--2-2-4-4-2-2-2-2-2-2-2-2-2-2-2-2------------------|
A|-2-2-2-0-0-0-2-2-2-0-0-0------0-0-0-0-----2-2-----2-2----------------------|
E|-------2-2-2-------2-2-2------4-4-2-2--------------------------------------|
Little Between Riff
e|-0-0-----------------------------------------------------------------------|
B|------0-2-0----------------------------------------------------------------|
G|------------0-1-0----------------------------------------------------------|
D|---------------------------------------------------------------------------|
A|---------------------------------------------------------------------------|
E|---------------------------------------------------------------------------|
Bridge
e|-2-2-2-----------------------------------3-3-------------------------------|
B|-3-3-3-4-4-4-1-1-1-3-3-3-1-1-1-3-3-3-1-1-3-3-------------------------------|
G|-2-2-2-4-4-4-0-0-0-4-4-4-0-0-0-4-4-4-2-2-0-0-4-4-1-1-----------------------|
D|-------4-4-4-2-2-2-4-4-4-2-2-2-4-4-4-2-2-0-0-4-4-1-1-----------------------|
A|-------0-0-0-3-3-3-2-2-2-3-3-3-2-2-2-----2-2-2-2-2-2-----------------------|
E|-------4-4-4-----------------------------3-3-------------------------------|