Johnny Rivers - Swaying To The Music Slow Dancin Text Guitar Tab

Learn song with the online tabulature player
-----------------------------------------------------------------------|
--11b---11---11---9-----11b--11---11---9---9h11p9----------------------|
-----------------------------------------------------------------------|
--------------------------------------------------11----13-------------|
-----------------------------------------------------------------------|
-----------------------------------------------------------------------|

-----------------------------------------------------------------------|
---11b---11---11---9---------------------------------------------------|
-------------------------------------13---15---------------------------|
-------------------------------13---------------13---------------------|
-----------------------------------------------------------------------|
-----------------------------------------------------------------------|

-----------------------------------------------------------------------|
---11b---11---11---9---------------------------------------------------|
-------------------------------------13---15---------16---18-----------|
-------------------------------13---------------13---------------15----|
-----------------------------------------------------------------------|
-----------------------------------------------------------------------|