Johnny Thunders - Too Much Junkie Business Text Guitar Tab

Learn song with the online tabulature player
Johnny Thunders - Too Much Junkie Business

----------------------2-2-5-5-5-5----------------------------------|
-----2-2-5-5-5-5--3-3------------------2-2-5-5-5-5-----------------|
-3-3-------------------------------3-3-----------------2-2-5-5-5-5-|
---------------------------------------------------3-3-------------|

----------------------2-2-5-5-5-5----------------------------------|
-----2-2-5-5-5-5--3-3------------------2-2-5-5-5-5-----------------|
-3-3-------------------------------3-3-----------------2-2-5-5-5-5-|
---------------------------------------------------3-3-------------|

----------------------2-2-5-5-5-5----------------------------------|
-----2-2-5-5-5-5--3-3------------------2-2-5-5-5-5-----------------|
-3-3-------------------------------3-3-----------------2-2-5-5-5-5-|
---------------------------------------------------3-3-------------|