Johnossi - Whats The Point Text Guitar Tab

Learn song with the online tabulature player
Intro:
|--7------------------------|
|--7-7-9-7------------------|
|--8-------9-8-------8------|
|--9-----------11-11---11-9-|
|--9------------------------|
|--7------------------------|

Bridge:
|--7----------------------------7-7-7-7-|
|--7-7-7-7---7-7-7------9-9-9-------9-9-|
|--8-------8----------8-------8-----8-8-|
|--9---------------11-------------------|
|--9------------------------------------|
|--7------------------------------------|x2

Made an quick tab (first one to) on how to play this without capo, sounds pretty 
to me. You will find the rythm quickly by playing along.