Join The Club - Emotional Overdose Text Guitar Tab

Learn song with the online tabulature player
Hi guys!!!
   
e|-----------------------------------------------------------|
B|--------9-----------------9--------------------------------|
G|------------12------------------12----------8--------------|
d|-----------------10-------------------10-------------------|
a|-----------------------------------------------------------|
E|-----------------------------------------------------------|
   then
e|-----------------------------------------------------------|
B|-----------------------------------------------------------|
G|--------8----------------------8---------------------------|
d|---------------12------9---------------12-------9----------|
a|------------------------------------------------------10---|
E|-----------------------------------------------------------|

   that's it...................Hoping to continue it this week...........
      Regards to band "POSTE".......continue excelling!!!!!!!!!
       and also to mel, kev, ralph, ang bugs!!!!!!!!1