Join The Club - Tinig Text Guitar Tab

Learn song with the online tabulature player
Song: Tinig
Artist: Join the club
Tabbed by: yUko
Date: May 12, 2009

Lengend:
> : continually strummed until the next chord
\ : slide down
/ : slide up
h : hammer on
p : pull 


Intro

(note: maging aware kau sa strumming, just listen to the song)
|----||---------------||=>repeat 2x
|----||---------------||
|----||-7>--7\66/77/9-||
|-7>-||-7>--7\66/77/9-||
|-7>-||-5>--5\44/55/7-||
|-5>-||---------------||
continued
|-------------||------------|
|-------------||------------|
|-11>-13>-14>-||-14141311-9-|
|-x->-x->-x->-||-x-x-x-x--9-|
|-9->-11>-12>-||-1212119--7-|
|-------------||------------|

Verse I
|----|---------------|----|-------|
|----|---------------|----|-------|
|----|-7>--7\66/77/9-|----|-9>--7-|
|-7>-|-7>--7\66/77/9-|-7>-|-9>--7-|
|-7>-|-5>--5\44/55/7-|-7>-|-7>--5-|
|-5>-|---------------|-5>-|-------|continued
  *    *               *
|--------|
|--------|
|-----7>-|
|-7>--7>-|
|-7>--5>-|
|-5>-----|continued
  
|------------|     |-------|
|------------|_____|-------|
|-----9>--7>-|Break|-6/7\6-|
|-4>--9>--7>-|_____|-x/7\x-|
|-4>--7>--5>-|     |-4/5\4-|
|-2>---------|     |-------|
  *   *   
Chorus

|------------|     |--------|----------------------|
|------------|     |--------|----------------------|
|-----9>-----|     |-----9>-|-13141614131413141614-|
|-7>--9>--4>-|-----|-7>--9>-|-x-x-x-x-x-x-x-x-x-x--|
|-7>--7>--4>-|pause|-7>--7>-|-11121412111211121412-|
|-5>------2>-|-----|-5>-----|----------------------|
  
Intro

Verse II

|----|---------------|----|-------|
|----|---------------|----|-------|
|----|-7>--7\66/77/9-|----|-9>--7-|
|-7>-|-7>--7\66/77/9-|-7>-|-9>--7-|
|-7>-|-5>--5\44/55/7-|-7>-|-7>--5-|
|-5>-|---------------|-5>-|-------|continued
  *    *                *   
|--------|
|--------|
|-----7>-|
|-7>--7>-|
|-7>--5>-|
|-5>-----|continued <---------|
  *   *                       |
|----------|     |-------|    |
|----------|_____|-------|    |
|-------7>-|Break|-6/7\6-|    |
|-4>----7>-|_____|-x/7\x-|    |
|-4>----5>-|     |-4/5\4-|    |
|-2>-------|     |-------|<---|
  *     *                     |
(note: iba ung strumming d2)==|

Chorus


e2 na ung part na merong ngriring...

|-------------------------------------|
|-------------------------------------|
|---6--6-6---6--6-6---6--6-6-6h7----6-|
|-------------------------------------|
|-------------------------------------|
|-5--5-----5--5-----5--5---------55---|
  *  *     *  *     *  *         **
continued
|--------------------------------------|
|--------------------------------------|
|---6--6-6---6--6-6---6--6-6-6h7---7h6-|
|--------------------------------------|
|--------------------------------------|
|-5--5-----5--5-----5--5--------55-----|
  *  *     *  *     *  *        **
continued
|----------------------------------------|
|---9h10p9-------------------------------|
|-9--------9-9/11-9---9--6h7p6-6-6-6h7---|
|-7------------------------------------7-|
|----------------------------------------|
|----------------------------------------|

Intro
note: change the last part to this:
|-----------|
|-----------|
|-7-9-10-12-|
|-7-9-10-12-|
|-5-7-8--10-|
|-----------|

Chorus
(note: clean part ung unang part..)
(juz listen to the sing para mkuha lahat ang pattern ng strumming..)

plz. rate pOh. . .

salamat nlang


any comments..
here's my e-add
viper_ynostrike@yahoo.com
...
enjoy playing the tab...☺☺