Jon Foreman - Equally Skilled Text Guitar Tab

Learn song with the online tabulature player
-------------------------------------------------------------------------------
                             Equally Skilled Intro - Jon Foreman
-------------------------------------------------------------------------------
Tabbed by: Mikesfoot
Email: michael.y.chung@hotmail.com

Tuning: standard

okkkkkk, this here is my first tab...my precious one-liner:

e|---------------------------------------------------------------------------|
B|-----------1------------1------------0----------------------1------------2-|
G|--------4------------4------------4------------2---------4------------4----|
D|-----2------------2------------2------------2---------2------------2-------|
A|--0------------------------------------------------0------------0----------|
E|---------------4------------3------------2---------------------------------|

______________________________________________________________   ____________
                         repeat twice                               lead-in
                                                                     to verse
the fingering is a bit awkward and i can't really find any way around it.  Feel free to 
or change some of this around. I urge you.

I simplified everything here. (Pretty much every chord that's broken is played upwards 
shown, and also downwards in the reverse direction (not shown).  The rhythm is really 
to catch on to.)