Jon Foreman - Your Love Is Strong Text Guitar Tab

Learn song with the online tabulature player
you love is strong by jon foreman

i didn't write out the rhythms and where the chords change because i didnt think it was
it is pretty easy to figure it out.  pretty much every chord changes at the end of a
 and it's in 3/4 time.  well anyways i am pretty sure this is 100 % correct.  well enjoy!

intro
e--0--0--0--0---|
B--0--0--0--0---|
G--4--4--4--4---|  x2
D--4--4--4--4---|
A--2--2--x--2---|
E--x--0--4--0---|

verse 1
e--0--0--0--0---|
B--0--0--0--0---|
G--4--4--4--4---|  x6
D--4--4--4--4---|
A--2--2--x--2---|
E--x--0--4--0---|

Heavenly Father, you always amaze me.
Let your kingdom come in my world and in my life.
Give me the food I need to live through the day,
And forgive me as I forgive the people that wrong me.
Lead me far from temptation,
Deliver me from the evil one.

verse 2
e--0--0--0--0      -0--0--0--0--0--0--2-|
B--0--0--0--0      -0--0--0--0--0--0--2-|
G--4--4--4--4  x4  -4--4--4--4--4--4--2-|
D--4--4--4--4      -4--4--4--4--4--4--4-|
A--2--2--x--2      -x--2--x--2--2--2--4-|
E--x--0--4--0      -4--0--4--0--x--0--2-|

I look out the window, the birds are composing,
Not a note is out of tune, or out of place.
I look at the meadow, and stare at the flowers,
better dressed than any girl on her wedding day.
So why do I worry?
Why do I freak out?
God knows what I need.
You know what I need.

chorus
e--4--5--x--x----|
B--5--7--9--11---|
G--6--8--9--11---|
D--6--9--9--11---|  x3
A--4--6--7--9----|
E--x--x--x--x----|

Your love is,
Your love is,
Your love is strong.
Your love is,
Your love is,
Your love is strong.
Your love is,
Your love is,
Your love is strong.

verse 3
e--0--0--0--0      -0--0--0--0--0--0--2-|
B--0--0--0--0      -0--0--0--0--0--0--2-|
G--4--4--4--4  x4  -4--4--4--4--4--4--2-|
D--4--4--4--4      -4--4--4--4--4--4--4-|
A--2--2--x--2      -x--2--x--2--2--2--4-|
E--x--0--4--0      -4--0--4--0--x--0--2-|

The kingdom of the heavens is now advancing,
Invade my heart, invade this broken town.
The kingdom of the heavens is a buried treasure,
Will you sell everything you are for what you've found?
Two things you told me,
That you are strong and you love me.
Yes, you love me.

chorus
e--4--5--x--x----|
B--5--7--9--11---|
G--6--8--9--11---|
D--6--9--9--11---|  x3
A--4--6--7--9----|
E--x--x--x--x----|

Your love is,
Your love is,
Your love is strong.
Your love is,
Your love is,
Your love is strong.
Your love is,
Your love is,
Your love is strong.

bridge
e--4--5--x--x----|
B--5--7--9--11---|
G--6--8--9--11---|
D--6--9--9--11---|  x4
A--4--6--7--9----|
E--x--x--x--x----|

My God in Heaven, hallowed be thy name above all names,
Your kingdom come,
Your will be done,
On earth as it is in heaven.
Give us today our daily bread,
Forgive us wicked sinners,
Lead us far away from our vices,
and deliver us from these prisons.

outro
e--0--0--0--0--0--0--0--0--0-|
B--0--0--0--0--0--0--0--0--0-|
G--4--4--4--4--4--4--4--4--4-|
D--4--4--4--4--4--4--4--4--4-|
A--2--2--x--2--2--2--x--2--2-|
E--x--0--4--0--x--0--4--0--x-|