Jona Lewie - Stop The Cavalry Text Guitar Tab

Learn the song with the online tablature player
This song is awsome for a christmas party so for you bass players out there here
is the bass tab for Jona Lewie: Stop The Cavalry

Intro

G:----------------|----------------|
D:----------------|----------------|
A:0---0-----------|0---0-----------|
D:--------2---2---|--------2---2---|

Verse 1
inc. instrumental)

G:----------------|----------------|----------------|----------------|
D:----------------|----------------|----------------|----------------|
A:0---0-----------|0---0-----------|0---0-----------|0---0-----------|
D:--------2---2---|--------2---2---|--------2---2---|--------2---2---|

G:----------------|----------------|--------|
D:----------------|----------------|--------| repeat
A:0---0-----------|0-------0---0---|0---0---|   *2
D:--------2---2---|----2-----------|--------|/

Verse 2

G:----------------|----------------|----------------|----------------|
D:----------------|----------------|----------------|----------------|
A:0---0-----------|0---0-----------|0---0-----------|0-------0---0---|
D:--------2---2---|--------2---2---|--------2---2---|----2-----------|

G:--------|
D:--------|
A:0---0---|
D:--------|

Bridge

G:----------------|----------------|----------------|----------------|
D:----------------|----------------|----------------|----------------|
A:--------0---0---|--------0---0---|--------0---0---|--------0---0---|
D:2---2-----------|2---2-----------|2---2-----------|2---2-----------|

G:----------------|--------|
D:----------------|--------|
A:0---0---0---0---|0---0---|
D:----------------|--------|

Chorus 1
You know the bit I mean...)

G:----------------|----------------|----------------|----------------|
D:----------------|----------------|----------------|----------------|
A:----------------|0---0---0---0---|----------------|0---0---0---0---|
D:2---2---2---2---|----------------|2---2---2---2---|----------------|

G:----------------|----------------|----------------|----------------|
D:----------------|----------------|----------------|----------------|
A:----------------|5---5---5---5---|0-------0---0---|0-------0-------|
D:5---5---5---5---|----------------|----0-----------|----0-----------|

G:----------------|----------------|--------|
D:----------------|----------------|--------|
A:0-------0-------|0-------0---0---|0---0---|
D:----0-------0---|----0-----------|--------|

Verse 3
Inc. Instrumental)

G:----------------|----------------|----------------|----------------|
D:----------------|----------------|----------------|----------------|
A:0---0-----------|0---0-----------|0---0-----------|0---0-----------|
D:--------2---2---|--------2---2---|--------2---2---|--------2---2---|

G:----------------|----------------|----------------|----------------|
D:----------------|----------------|----------------|----------------|
A:0---0-----------|0-------0---0---|0---0-----------|0---0-----------|
D:--------2---2---|----2-----------|--------2---2---|--------2---2---|

G:----------------|----------------|----------------|----------------|
D:----------------|----------------|----------------|----------------|
A:0---0-----------|0---0-----------|0---0-----------|0-------0---0---|
D:--------2---2---|--------2---2---|--------2---2---|----2-----------|

G:----------------|
D:----------------|
A:0---0---0---0---|
D:----------------|

Chorus 2

G:----------------|----------------|----------------|----------------|
D:----------------|----------------|----------------|----------------|
A:----------------|0---0---0---0---|----------------|0---0---0---0---|
D:2---2---2---2---|----------------|2---2---2---2---|----------------|

G:----------------|----------------|
D:----------------|----------------|
A:----------------|5---5---5---5---|
D:5---5---5---5---|----------------|

Outro

G:----------------|----------------|----------------|----------------|
D:----------------|----------------|----------------|----------------|
A:----------------|5---5---5---5---|0-------0---0---|0-------0---0---|
D:5---5---5---5---|----------------|----0-----------|----0-----------|

G:----------------|----------------|
D:----------------|----------------|
A:0-------0-------|0---------------|
D:----0-------0---|----------------|

Song Order

Intro
Verse 1
Verse 2
Bridge
Chorus 1
Verse 3
Chorus 2
Bridge
Outro