Jonas Brothers - Before The Storm Text Guitar Tab

Learn song with the online tabulature player
Before The Storm – Jonas Brothers feat. Miley Cyrus

Listen to the song for the strumming pattern.
Leave a comment if you have any corrections :)

Intro:
e|------------------------------------|
B|------------------------------------|
G|-77777777-------------------4444----|
D|-77777777-77777777-55555555-4444-7~-|
A|-55555555-77777777-55555555-2222-7~-|
E|----------55555555-33333333------5~-|

Verse:
e|-------------------|     e|-------------|    
B|-------------------|     B|-------------|
G|-44444444----------|     G|-------------|
D|-44444444-55555555-| x8  D|-2~-7~-2~-7~-|
A|-22222222-55555555-|     A|-2~-7~-2~-7~-|
E|----------33333333-|     E|-0~-5~-0~-5~-|

Chorus:
e|--------------------------------------|
B|--------------------------------------|
G|-77777777-------------------4444------|
D|-77777777-77777777-55555555-4444-7777-| x3
A|-55555555-77777777-55555555-2222-7777-|
E|----------55555555-33333333------5555-|

Verse:
e|-------------------|     e|-------|    
B|-------------------|     B|-------|
G|-44444444----------|     G|-------|
D|-44444444-55555555-| x4  D|-2~-7~-|
A|-22222222-55555555-|     A|-2~-7~-|
E|----------33333333-|     E|-0~-5~-|

Chorus:
e|--------------------------------------|
B|--------------------------------------|
G|-77777777-------------------4444------|
D|-77777777-77777777-55555555-4444-7777-| x2
A|-55555555-77777777-55555555-2222-7777-|
E|----------55555555-33333333------5555-|

Bridge:
e|-------------------------------------|
B|-------------------------------------|
G|-------------------44444444----------|
D|-22222222-77777777-44444444-55555555-|
A|-22222222-77777777-22222222-55555555-|
E|-00000000-55555555----------33333333-|

e|-------------------------------------|
B|-------------------------------------|
G|-------------------44444444----------|
D|-22222222-77777777-44444444-5~-7~-5~-|
A|-22222222-77777777-22222222-5~-7~-5~-|
E|-00000000-55555555----------3~-5~-3~-|

Chorus: (Don’t play anything, when the piano is playing.)
e|---------------------------------------------|
B|---------------------------------------------|
G|-9~-999-------------------6666-4444-99999999-|
D|-9~-999-99999999-77777777-6666-4444-99999999-| 
A|-7~-777-99999999-77777777-4444-2222-77777777-|
E|--------77777777-55555555--------------------|

Outro: (Not too sure about this.)
e|------------------------------------------------|
B|------------------------------------------------|
G|-99999999-------------------6666-4444--6~-4~----|
D|-99999999-99999999-77777777-6666-4444--6~-4~-7~-|
A|-77777777-99999999-77777777-4444-2222--4~-2~-7~-|
E|----------77777777-55555555------------------5~-|

e|-------14b16-12-11-12-11h12p11----------------11-12-11--------------|
B|-12h14-------------------------12-14----12-14----------12-14-16-17--|
G|-------------------------------------13-----------------------------|
D|--------------------------------------------------------------------|
A|--------------------------------------------------------------------|
E|--------------------------------------------------------------------|