Jonas Brothers - I Am What I Am Text Guitar Tab

Learn song with the online tabulature player
e-mail me at bobmcfobb893@hotmail.com to tell me what you think



verse 1:
" i am what i am"...
e|---------------------------------------------------------------|
B|---------------------------------------------------------------|
G|---88---1111----66---55---444-----3333----44444444-----66666---|x2
D|---88---1111----66---55---444-----3333----44444444-----66666---|
A|---66----99-----44---33---222-----1111----22222222-----44444---|
E|---------------------------------------------------------------|

chorus:
"and i know"...
e|-------------------|    
B|-------------------|     
G|----4--------6-----|    
D|----4---4----6-----|x3 
A|----2---4----4-----|     
E|--------2----------|     
 
e|--------------------------------------------------------|
B|--------------------------------------------------------|
G|-----------------------------------------888--666-------|
D|----4--6--8--9--4--6--8--9--4--6--8--9---888--666-------|x2
A|----4--6--8--9--4--6--8--9--4--6--8--9---666--444-------|
E|----2--4--6--7--2--4--6--7--2--4--6--7------------------|

verse2:
"i am what i am"...
e|-------------------------------------------------------------|
B|-------------------------------------------------------------|
G|---88---1111----66---55---444------3333---44444444----66666--|x2
D|---88---1111----66---55---444------3333---44444444----66666--|
A|---66----99-----44---33---222------1111---22222222----44444--|
E|-------------------------------------------------------------|

chorus:
"because i know"...
e|-------------------|  
B|-------------------|   
G|----4--------6-----|  
D|----4---4----6-----|x3  
A|----2---4----4-----|  
E|--------2----------|   

e|--------------------------------------------------------|
B|--------------------------------------------------------|
G|-----------------------------------------88--6666-------|
D|----4--6--8--9--4--6--8--9--4--6--8--9---88--6666-------|x2
A|----4--6--8--9--4--6--8--9--4--6--8--9---66--4444-------|
E|----2--4--6--7--2--4--6--7--2--4--6--7------------------|

bridge:
"o can't you see"
e|---------------------------------------------------------|
B|---------------------------------------------------------|
G|--4---------4-----8--4----4-------6---4---4---4---4---4--| 
D|--4----4----4-----8--4----4---4---6---4---4---4---4---4--|
A|--2----4----2-----6--6----2---4---4---2---2---2---2---2--|
E|-------2----------------------2--------------------------|

guitar solo
e|---------------------------------------------------------------|
B|---------------------------------------------------------------|
G|---------------------------------------------------------------| 
D|--8-6-4-8--8-6-4-8-8-66666666-4-6-4-44-6-4-44-66-44-66-88888---|
A|---------------------------------------------------------------|
E|---------------------------------------------------------------|

verse 3:
"i am what i am"...
e|----------------------------------------------------------|
B|----------------------------------------------------------|
G|---88---1111---66---55---444---3333---44444444----66666---| 
D|---88---1111---66---55---444---3333---44444444----66666---|
A|---66----99----44---33---222---1111---22222222----44444---|
E|----------------------------------------------------------|

e|----------------|  
B|----------------|   
G|----4--------6--|  
D|----4---4----6--|x3  
A|----2---4----4--|  
E|--------2-------|   

e|--------------------------------------------------------|   ----|
B|--------------------------------------------------------|   ----|  
G|-----------------------------------------88--6666-------|   ----|  
D|----4--6--8--9--4--6--8--9--4--6--8--9---88--6666-------|x4 -4--|
A|----4--6--8--9--4--6--8--9--4--6--8--9---66--4444-------|   -4--|
E|----2--4--6--7--2--4--6--7--2--4--6--7------------------|   -2--|