Jonas Brothers - Just Friends Text Guitar Tab

Learn song with the online tabulature player
e-mail:bobmcfobb893@hotmail.com


verse 1
"there she goes again"
e|------------------------------------|
B|------------------------------------|
G|--44--444--999------44--444--9999---|
D|--44--444--999------44--444--9999---|
A|--22--221--777------22--221--7777---|
E|------------------------------------|

"i don't want to lead you on"
e|----------------------------------|
B|----------------------------------|
G|----------------------------------|
D|--4----2----4----7----------------|
A|--4x16-2x16-4x16-7x16-------------|
E|--2----0----2----5----------------|

chorus
"everyone knows it's meant to be"
e|------------------------|
B|------------------------|
G|-4----------------------|
D|-4x16-4----7----2-------|x2
A|-2----4x16-7x16-2x16----|
E|------2----5----0-------|

verse 2
"small talk on IM"
x-barely put pressure on the string
e|------------------------------------|
B|------------------------------------|
G|--44-4----4----9----4----4----9-----|
D|--44-4x14-4x16-9x16-4x16-4x16-9x16--|
A|--22-2----1----7----2----1----7-----|
E|------------------------------------|
       x    x    x    x    x    x

chorus
"everyone knows it's meant to be"
e|------------------------|
B|------------------------|
G|-4----------------------|
D|-4x16-4----7----2-------|x2
A|-2----4x16-7x16-2x16----|
E|------2----5----0-------|

verse 3
e|--------------------------------|
B|--------------------------------|
G|--44-4----444-4----9999-9-------|
D|--44-4x14-444-4x14-9999-9x16----|
A|--22-2----221-1----7777-7-------|
E|--------------------------------|
       x        x         x    

"she walks down the aisle"
e|------------------------|
B|------------------------|
G|--44-4----444-4----9----|
D|--44-4x14-444-4x14-9----|
A|--22-2----221-1----7----|
E|------------------------|

chorus
"everyone knows it's meant to be"
e|------------------------|   |-----|
B|------------------------|   |-----|
G|-4----------------------|   |--4--|
D|-4x16-4----7----2-------|x4 |--4--|
A|-2----4x16-7x16-2x16----|   |--2--|
E|------2----5----0-------|   |-----|