Jonas Brothers - Keep It Real Text Guitar Tab

Learn song with the online tabulature player
-------------------------------------------------------------------------------
                             Keep It Real - Jonas Brothers
-------------------------------------------------------------------------------
Tabbed by: Drool
Tuning: Standard
Key: E major (B Lydian)
Time: 4/4



Note: The easiest fingering for the major sixth chords throughout the song's
      choruses would be as follows.

 e---x
 B---Index/Minimus
 G---Middle
 D---Ring
 A---x
 E---Thumb

      You would lift your last finger up and down to play the higher notes
      on the B string, and let your thumb hang over the top to play the low
      E string without discomfort.  Your thumb may also rest against the A
      in order to mute it.



Intro

             Bmaj6                           Amaj6
e|---------|--------------|----------------|--------------|----------------|
B|-x-x-x-x-|-9--9--9----9-|--9---7-9-9-9---|-7--7--7----7-|--7---5-7-7-7---|
G|-x-x-x-x-|-8--8--8----8-|--8---8-8-8-8---|-6--6--6----6-|--6---6-6-6-6---|
D|-x-x-x-x-|-9--9--9----9-|--9---9-9-9-9---|-7--7--7----7-|--7---7-7-7-7---|
A|-x-x-x-x-|--------------|----------------|--------------|----------------|
E|-x-x-x-x-|-7--7--7----7-|--7---7-7-7-7---|-5--5--5----5-|--5---5-5-5-5---|

   Bmaj6                           Amaj6
e|--------------|----------------|--------------|-----------------|
B|-9--9--9----9-|--9---7-9-9-9---|-7------------|-x-x-x-x-x-x-x-x-|
G|-8--8--8----8-|--8---8-8-8-8---|-6------------|-x-x-x-x-x-x-x-x-|
D|-9--9--9----9-|--9---9-9-9-9---|-7------------|-x-x-x-x-x-x-x-x-|
A|--------------|----------------|--------------|-x-x-x-x-x-x-x-x-|
E|-7--7--7----7-|--7---7-7-7-7---|-5------------|-x-x-x-x-x-x-x-x-|

   Bmaj6                           Amaj6
e|--------------|----------------|--------------|----------------|
B|-9--9--9----9-|--9---7-9-9-9---|-7--7--7----7-|--7---5-7-7-7---| Repeat
G|-8--8--8----8-|--8---8-8-8-8---|-6--6--6----6-|--6---6-6-6-6---| Once
D|-9--9--9----9-|--9---9-9-9-9---|-7--7--7----7-|--7---7-7-7-7---|
A|--------------|----------------|--------------|----------------|
E|-7--7--7----7-|--7---7-7-7-7---|-5--5--5----5-|--5---5-5-5-5---|





Verse x2

   Bmaj6                           Amaj6
e|---------------|---------------|--------------|---------------|
B|---------------|---------------|--------------|---------------|
G|---------------|---------------|--------------|---------------|
D|---------------|---------------|--------------|---------------|
A|-11-11-11---11-|--11--9-11--9--|-9--9--9----9-|--9---7-9---7--|
E|-7--7--7----7--|--7---7-7---7--|-5--5--5----5-|--5---5-5---5--|

   Bmaj6                              Amaj6
e|---------------|---------------|--------------|---------------|
B|---------------|---------------|--------------|---------------|
G|---------------|---------------|--------------|---------------|
D|---------------|---------------|--------------|---------------|
A|-11-11-11---11-|--11--9-11--9--|----9----9----|-9----9----9---|
E|-7--7--7----7--|--7---7-7---7--|----5----5----|-5----5----5---|


Fill before chorus

e|-------12~~---------|
B|-12-14-------14-12--|
G|--------------------|
D|--------------------|
A|--------------------|
E|--------------------|





Chorus x 4

   Bmaj6                           Amaj6
e|--------------|----------------|--------------|----------------|
B|-9--9--9----9-|--9---7-9-9-9---|-7--7--7----7-|--7---5-7-7-7---|
G|-8--8--8----8-|--8---8-8-8-8---|-6--6--6----6-|--6---6-6-6-6---|
D|-9--9--9----9-|--9---9-9-9-9---|-7--7--7----7-|--7---7-7-7-7---|
A|--------------|----------------|--------------|----------------|
E|-7--7--7----7-|--7---7-7-7-7---|-5--5--5----5-|--5---5-5-5-5---|





Verse 2

 Also plays the same rhythm figure as verse 1

 Palm mute all low notes

e|---------------|----------------|---------------|----------------|
B|---------------|----------------|---------------|----------------|
G|---------------|----------------|---------------|----------------|
D|----9----9-----|-----9-------9--|----7----7-----|-----7-------7--|
A|---------------|----------------|---------------|----------------|
E|-7-----7-----7-|-7-7-----7-7----|-5-----5-----5-|-5-5-----5-5----|

e|---------------|----------------|---------------|----------------|
B|---------------|----------------|---------------|----------------|
G|---------------|----------------|---------------|----------------|
D|----9----9-----|-----9-------9--|----7----7-----|-7-----------7--|
A|---------------|----------------|---------------|----------------|
E|-7-----7-----7-|-7-7-----7-7----|-5-----5-----5-|-----5---5-5----|

e|---------------|----------------|---------------|----------------|
B|---------------|----------------|---------------|----------------|
G|---------------|----------------|---------------|----------------|
D|----9----9-----|-----9-------9--|----7----7-----|-------------7--|
A|---------------|----------------|---------------|----------------|
E|-7-----7-----7-|-7-7-----7-7----|-5-----5-----5-|---5-5---5------|

e|---------------|----------------|-----------------|-----------------|
B|---------------|----------------|-----------------|-----------------|
G|---------------|----------------|-----------------|-----------------|
D|----9----9-----|-----9-----9----|-----------------|-----------------|
A|---------------|----------------|---------7-7-7-7-|-7-7-7-7-7-7-7-7-|
E|-7-----7-----7-|-7-7-----7------|-5-5-5-5-5-5-5-5-|-5-5-5-5-5-5-5-5-|
                                    |--Gradually Release PM---|





Chorus x 4

   Bmaj6                           Amaj6
e|--------------|----------------|--------------|----------------|
B|-9--9--9----9-|--9---7-9-9-9---|-7--7--7----7-|--7---5-7-7-7---|
G|-8--8--8----8-|--8---8-8-8-8---|-6--6--6----6-|--6---6-6-6-6---|
D|-9--9--9----9-|--9---9-9-9-9---|-7--7--7----7-|--7---7-7-7-7---|
A|--------------|----------------|--------------|----------------|
E|-7--7--7----7-|--7---7-7-7-7---|-5--5--5----5-|--5---5-5-5-5---|





Bridge

   Dmaj        Amaj                Emaj
e|---------------|---------------|---------------|---------------|
B|-7--7--7-7-7---|---------------|-9--9--9-9-9-9-|--9-9--9-9-9-9-|
G|-7--7--7-7-7-6-|--6-6--6-6-6-6-|-9--9--9-9-9-9-|--9-9--9-9-9-9-|
D|-7--7--7-7-7-7-|--7-7--7-7-7-7-|-9--9--9-9-9-9-|--9-9--9-9-9-9-|
A|-5--5--5-5-5-7-|--7-7--7-7-7-7-|-7--7--7-7-7-7-|--7-7--7-7-7-7-|
E|-------------5-|--5-5--5-5-5-5-|---------------|---------------|

   Dmaj        Amaj                Bmaj
e|---------------|---------------|----------------|-----------------|
B|-7--7--7-7-7---|---------------|----------------|-----------------|
G|-7--7--7-7-7-6-|--6-6--6-6-6-6-|-8--------------|-----------------|
D|-7--7--7-7-7-7-|--7-7--7-7-7-7-|-9--9-9-9-9-9-9-|-9-9-9-9-9-9-9-9-|
A|-5--5--5-5-5-7-|--7-7--7-7-7-7-|-9--9-9-9-9-9-9-|-9-9-9-9-9-9-9-9-|
E|-------------5-|--5-5--5-5-5-5-|-7--7-7-7-7-7-7-|-7-7-7-7-7-7-7-7-|





Chorus x 2

e|-------|-------|-------|-------|
B|-9-----|-------|-7-----|-------|
G|-8-----|-------|-6-----|-------|
D|-9-----|-------|-7-----|-------|
A|-------|-------|-------|-------|
E|-7-----|-------|-5-----|-------|
   Play with a slow downstroke





Brass/Guitar Solo

Rhythm Guitar: Play the chorus rhythm twice

   Bmaj6                           Amaj6
e|--------------|----------------|--------------|----------------|
B|-9--9--9----9-|--9---7-9-9-9---|-7--7--7----7-|--7---5-7-7-7---|
G|-8--8--8----8-|--8---8-8-8-8---|-6--6--6----6-|--6---6-6-6-6---|
D|-9--9--9----9-|--9---9-9-9-9---|-7--7--7----7-|--7---7-7-7-7---|
A|--------------|----------------|--------------|----------------|
E|-7--7--7----7-|--7---7-7-7-7---|-5--5--5----5-|--5---5-5-5-5---|


Lead Guitar:

  Bmaj6
e|----------------------|-----------------------|
B|----------------------|-----------------------|
G|-/13--/13--/13----/13-|---/13---11/13---/13---|
D|----------------------|-----------------------|
A|----------------------|-----------------------|
E|----------------------|-----------------------|

   Amaj6
e|----------------------|-----------------------|
B|----------------------|------------12-10-9----|
G|-/11--/11--/11----/11-|---/11---11---------11-|
D|----------------------|-----------------------|
A|----------------------|-----------------------|
E|----------------------|-----------------------|

   Bmaj6
e|--------------------|---------------12-14-|
B|-------12-9---------|----12---12-14-------|
G|--13--------11-9~\--|---------------------|
D|--------------------|---------------------|
A|--------------------|---------------------|
E|--------------------|---------------------|

   Amaj6
e|-/16----12~~~--------|-----------------------|
B|------------------14-|--12-------------------|
G|---------------------|-----13-11-13-11-9~\---|
D|---------------------|-----------------------|
A|---------------------|-----------------------|
E|---------------------|-----------------------|






Chorus x 4

   Bmaj6                           Amaj6
e|--------------|----------------|--------------|----------------|
B|-9--9--9----9-|--9---7-9-9-9---|-7--7--7----7-|--7---5-7-7-7---|
G|-8--8--8----8-|--8---8-8-8-8---|-6--6--6----6-|--6---6-6-6-6---|
D|-9--9--9----9-|--9---9-9-9-9---|-7--7--7----7-|--7---7-7-7-7---|
A|--------------|----------------|--------------|----------------|
E|-7--7--7----7-|--7---7-7-7-7---|-5--5--5----5-|--5---5-5-5-5---|

End on

   Bmaj6
e|-7---7-----|
B|-9---9-----| Move your index from the B string
G|-8---8-----| to the E string to play the high
D|-9---9-----| B note.
A|-----------|
E|-7---7-----|


| /  slide up
| \  slide down
| h  hammer-on
| p  pull-off
| ~  vibrato
| +  harmonic
| x  Mute note
===============================================================================