Jonas Brothers - Kids Of The Future Text Guitar Tab

Learn song with the online tabulature player
-------------------------------------------------------------------------------
			     Kids of the Future - Jonas Brothers
-------------------------------------------------------------------------------
Tabbed by: ilyfudge
Email: ilyfudge@aim.com

Tuning: Drop D

	Remember this is in drop D tuning.
	Different tuning can be annoying, but drop D isn't hard 
	to tune to.
	This is also not a very hard song so enjoy!

        *Update!*
        i fixed the end solo thanks to a tip from Rocker1717.

Intro/Verse
	"Standing on a dirty old rooftop..."
e|-----------------------------------------------------------x---|
B|-----------------------------------------------------------x---|
G|-----------------------------------------------------------x---|
D|---55555555------33333333------11111111---33333333333333---x---|
A|---55555555-x6---33333333-x2---11111111---33333333333333---x---|
D|---55555555------33333333------11111111---33333333333333---x---|

e|--------------------------------------------------------|
B|--------------------------------------------------------|
G|--------------------------------------------------------|
D|---55555555------33333333------11111111---33333333------|
A|---55555555-x6---33333333-x2---11111111---33333333-x2---|
D|---55555555------33333333------11111111---33333333------|

Pre Chorus
	"Here we go, let me remind you..."
e|-------------------------------|
B|-------------------------------|
G|---55555555------77777777------|
D|---55555555-x2---77777777-x2---|
A|---33333333------55555555------|
D|-------------------------------|

Chorus
	"We're the kids of the future..."
e|----------------------------------------------------------|
B|----------------------------------------------------------|
G|---88888888--------------88888888--------------88888888---|
D|---88888888---88888888---88888888---88888888---88888888---|
A|---66666666---88888888---66666666---88888888---66666666---|
D|--------------88888888--------------88888888--------------|

e|------------------------------------------------|
B|------------------------------------------------|
G|---1010101010101010---12-12-12-12-12-12-12-12---|
D|---1010101010101010---12-12-12-12-12-12-12-12---|
A|---8-8-8-8-8-8-8-8----10-10-10-10-10-10-10-10---|
D|------------------------------------------------|

Verse
	"Bright lights, boy look around you..."
e|--------------------------------------------------------|
B|--------------------------------------------------------|
G|--------------------------------------------------------|
D|---55555555------33333333------11111111---33333333------| x2
A|---55555555-x6---33333333-x2---11111111---33333333-x2---|
D|---55555555------33333333------11111111---33333333------|
			
OR
			
e|------------------------------------------|
B|------------------------------------------|
G|---x-12------x-10------x-8------x-10------|
D|---x-x--x7---x-x--x4---x-x-x2---x-x--x6---|
A|---x-10------x-8-------x-6------x-8-------|
D|-------(play these on the off-beat)-------|

e|------------------------------------------|
B|------------------------------------------|
G|---x-12------x-10------x-8------x-10------|
D|---x-x--x7---x-x--x4---x-x-x2---x-x--x2---|
A|---x-10------x-8-------x-6------x-8-------|
D|------------------------------------------|

Pre Chorus
	"Looking for a place you belong to..."
e|-------------------------------|
B|-------------------------------|
G|---55555555------77777777------|
D|---55555555-x2---77777777-x2---|
A|---33333333------55555555------|
D|-------------------------------|

Chorus
	"We're the kids of the future..."
e|----------------------------------------------------------|
B|----------------------------------------------------------|
G|---88888888--------------88888888--------------88888888---|
D|---88888888---88888888---88888888---88888888---88888888---|
A|---66666666---88888888---66666666---88888888---66666666---|
D|--------------88888888--------------88888888--------------|

e|----------------------|
B|----------------------|
G|---1010101010101010---|
D|---1010101010101010---|
A|---8-8-8-8-8-8-8-8----|
D|----------------------|

Post Chorus
e|--------------------------------------------------------------|
B|--------------------------------------------------------------|
G|---1212121212121212---88888888---55555555----10101010101010---|
D|---1212121212121212---88888888---55555555-or-10101010101010---|
A|---1010101010101010---66666666---33333333----8-8-8-8-8-8-8----|
D|--------------------------------------------------------------|

Verse
	"Everyday we have fun me and Wilbur..."
e|--------------------------------------------------------|
B|--------------------------------------------------------|
G|--------------------------------------------------------|
D|---55555555------33333333------11111111---33333333------| x2
A|---55555555-x6---33333333-x2---11111111---33333333-x2---|
D|---55555555------33333333------11111111---33333333------|

Pre Chorus
	"We'll save the future together..."
e|-------------------------------|
B|-------------------------------|
G|---55555555------77777777------|
D|---55555555-x2---77777777-x2---|
A|---33333333------55555555------|
D|-------------------------------|

Chorus
	"We're the kids of the future..."
e|----------------------------------------------------------|
B|----------------------------------------------------------|
G|---88888888--------------88888888--------------88888888---|
D|---88888888---88888888---88888888---88888888---88888888---|
A|---66666666---88888888---66666666---88888888---66666666---|
D|--------------88888888--------------88888888--------------|

e|----------------------|
B|----------------------|
G|---1010101010101010---|
D|---1010101010101010---|
A|---8-8-8-8-8-8-8-8----|
D|----------------------|

Post Chorus
e|--------------------------------------------------------------|
B|--------------------------------------------------------------|
G|---1212121212121212---88888888---55555555----10101010101010---|
D|---1212121212121212---88888888---55555555-or-10101010101010---| x2
A|---1010101010101010---66666666---33333333----8-8-8-8-8-8-8----|
D|--------------------------------------------------------------|

Outro
	"We're the kids..."
e|-------------------|
B|-------------------|
G|---12~---8~---5~---|
D|---12~---8~---5~---| x2
A|---10~---6~---3~---|
D|-------------------|

Continue outro or play...

e|-----------------------------------------------------------------------|
B|-----------------------------------------------------------------------|
G|---14h15-14p12-9-12~---14h15-14p12---14h15-14p12---14h15-14p12-9-12~---|
D|-----------------------------------------------------------------------|
A|-----------------------------------------------------------------------|
D|-----------------------------------------------------------------------|

e|-----------------------------------------------------------------|
B|-----------------------------------------------------------------|
G|---14h15-14p12---14h15-14p12---14h15-14p12---14h15-14p12-9-12~---|
D|-----------------------------------------------------------------|
A|-----------------------------------------------------------------|
D|-----------------------------------------------------------------|


| /  slide up
| \  slide down
| h  hammer-on
| p  pull-off
| ~  vibrato
| +  harmonic
| x  Mute note
===============================================================================