Jonas Brothers - Send It On Text Guitar Tab

Learn song with the online tabulature player
i learned this by ear so sorry if theres any mistakes or if its confusing :P
but enjoy :)haha


intro:
e|----------------------------------------------|
B|---------0----------0----------5--------------|
G|-----------------------------6--------9-------|
D|-------7---------4---------6---------9--------|   x2
A|-----7---------4---------4----------7---------|
E|---5---------2---------------------0----------|

verse: (nick&miley)
e|----------------------------------------------|
B|---------0----------0----------5--------------|
G|-----------------------------6--------9-------|
D|-------7---------4---------6---------9--------|   x3
A|-----7---------4---------4----------7---------|
E|---5---------2---------------------0----------|

chorus: (everyone)
e|------------------------------------------|       
B|------------------------------------------|       
G|---7--------------------------9----1------|        
D|---7--------7--------4--------7----2------|   x3   
A|---5--------7--------4--------7-or-2------|        
E|------------5--------2--------------------|         

e|-------------------|
B|-------------------|
G|---7---------------|
D|---7--------7------|
A|---5--------7------|
E|------------5------|

verse: (joe&demi∋ck&miley)
e|----------------------------------------------|
B|---------0----------0----------5--------------|
G|-----------------------------6--------9-------|
D|-------7---------4---------6---------9--------|   x3
A|-----7---------4---------4----------7---------|
E|---5---------2---------------------0----------|

chorus: (everyone)
e|------------------------------------------|       
B|------------------------------------------|       
G|---7--------------------------9----1------|        
D|---7--------7--------4--------9----2------|   x3   
A|---5--------7--------4--------7-or-2------|        
E|------------5--------2--------------------|         

e|---------------------------------------------------------------------|
B|---------------------------------------------------------------------|
G|---7--------------------9----4------7-------------9----4------7------|
D|---7------7------4------9----4------7------4------9----4------7------|
A|---5------7------4------7-or-2------5------4------7-or-2------5------|
E|----------5------2-------------------------2-------------------------|

bridge: (everyone)
e|---------------------------|
B|---------------------------|
G|---------9----1-----7------|
D|--4------9----2-----7------|
A|--4------7-or-2-----5------|
E|--2------------------------|

verse: (selena&kevin)
e|----------------------------------------------|
B|---------0----------0-------5-----------------|
G|---------------------------6----------9-------|
D|-------7---------4--------6----------9--------|   x2
A|-----7---------4---------4----------7---------|
E|---5---------2---------------------0----------|

chorus: (everyone)
e|------------------------------------------|       
B|------------------------------------------|       
G|---7--------------------------9----1------|        
D|---7--------7--------4--------9----2------|   x3   
A|---5--------7--------4--------7-or-2------|        
E|------------5--------2--------------------|         

e|------------------------------------------------------------|       
B|------------------------------------------------------------|       
G|---7-----------------7--------------------------9----1------|        
D|---7--------7--------5--------7--------4--------9----2------|
A|---5--------7--------5--------7--------4--------7-or-2------|        
E|------------5-----------------5--------2--------------------|         

e|------------------------------------------|       
B|------------------------------------------|       
G|---7--------------------------9----1------|        
D|---7--------7--------4--------9----2------|   x2   
A|---5--------7--------4--------7-or-2------|        
E|------------5--------2--------------------|         

outro: (everyone)
e|-----------------------------------------------------------|       
B|-----------------------------------------------------------|       
G|---7--------------------------9----1-------7---------------|        
D|---7--------7--------4--------9----2-------7------7~-------|     
A|---5--------7--------4--------7-or-2-------5------7~-------|        
E|------------5--------2----------------------------5~-------|